Oops, an error
Loading. Please wait.

With Me Tab

ver7
3,003 views 3 this week
no commentswrite comment
1 2 3 4 5
poor
x 1
Autoscroll
+/-
esc
set tempo
stop
Contributor
Difficulty
intermediate
Hey! There's an official Ultimate Guitar app which is ideal
for learning songs when you're away from computer. Get the app
WARNING: You are trying to view
                                    content from Ultimate-Guitar.com
                                    in an unauthorized application,
                                    which is prohibited.

                                    Please use an official Ultimate
                                    Guitar Tabs application for iPhone,
                                    iPad or Android to access legitimate
                                    chords, guitar, bass, and drum tabs
                                    from Ultimate-Guitar.com database.

                                    Type "ultimate guitar tabs" in Apple
                                    App Store's or Android Market's
                                    search to find the application.
Song : With Me
Artist : Sum 41
Album : Underclass Hero



This is my first tab and I think it sounds how they play it




There are three guitars:


Guitar 1 - (EADGBe)


Guitar 2 - (EADGBe)


Guitar 3 - (EADGBe)






Intro/Verse

Guitar 1

e|-------------------------|----------------------------------|
B|--------------------5~---|--------------------5-------------|
G|-----------4-------------|-----------4------------4~--------|
D|-2-2-------------2-------|----------------------------------|
A|-------------------------|-2-2----------2-------------------|
E|-------------------------|----------------------------------|

e|-------------------------|----------------------------------|
B|----------------------5~-|----------------------4---5-------|
G|------------4------------|------------4-----------------4~--|
D|-------------------------|----------------------------------| x8
A|-4-4-------------4-------|-0-0------------0-----------------|
E|-------------------------|----------------------------------|

Guitar 2

e|-----------|-----------|--44-4-44--|-----------|
B|--00-0-00--|--22-2-22--|--55-5-55--|--00-0-00--|
G|--11-1-11--|--44-4-44--|--66-6-66--|--22-2-22--|
D|--22-2-22--|--44-4-44--|--66-6-66--|--22-2-22--|
A|--22-2-22--|--22-2-22--|--44-4-44--|--00-0-00--|
E|--00-0-00--|-----------|-----------|-----------|

Guitar 3

e|-12~--11~---------------12~----11~-----------------12~---------12~--11~--|
B|-----------14~----12~----------------14~-----12~---------12~-------------|
G|-------------------------------------------------------------------------|
D|-------------------------------------------------------------------------|
A|-------------------------------------------------------------------------|
E|-------------------------------------------------------------------------|


Chorus

Guitars 1 and 2

e|-------------------------------------------------------------|
B|-------------------------------------------------------------|
G|---66666666-------------------------44444444---55555555------|
D|---66666666---77777777---22222222---44444444---66666666------|
A|---44444444---77777777---22222222---22222222---33333333------|
E|--------------55555555---00000000----------------------------|

e|------------------------------------------------------------------------|
B|------------------------------------------------------------------------|
G|--66666666----------------------44444444--55555555--66666666------------|
D|--66666666--77777777--22222222--44444444--66666666--66666666--77777777--|
A|--44444444--77777777--22222222--22222222--33333333--44444444--77777777--|
E|------------55555555--00000000--------------------------------55555555--|

Verse

     Guitar 1

    e|-------------------------|----------------------------------|
    B|----------------------5~-|-------------------5--------------|
    G|-----------4-------------|-----------4------------4~--------|
    D|-2----2----------2-------|-2-----2------2-------------------|
    A|-------------------------|----------------------------------|
    E|-------------------------|----------------------------------|
|______________________________________________________________________|

e|-------------------------|----------------------------------|
B|----------------------5~-|--------------------5-------------|
G|-----------4-------------|-----------4------------4~--------|
D|-2----2----------2-------|----------------------------------|
A|-------------------------|-2-----2------2-------------------|
E|-------------------------|----------------------------------|
                                                                
e|-------------------------|---------------------------------------| x4
B|----------------------5~-|----------------------4---5------------|
G|------------4------------|------------4-----------------4~-------|
D|-------------------------|---------------------------------------|
A|-4-----4---------4-------|-0-----0--------0----------------------|
E|-------------------------|---------------------------------------|


Pre-Chorus

Guitar 2

e|-------------------------|----------------------------------|
B|----------------------5~-|--------------------5-------------|
G|-----------4-------------|-----------4------------4~--------|
D|-2----2----------2-------|----------------------------------|
A|-------------------------|-2-----2------2-------------------|
E|-------------------------|----------------------------------|

e|-------------------------|----------------------------------|
B|----------------------5~-|----------------------4---5-------|
G|------------4------------|------------4-----------------4~--|
D|-------------------------|----------------------------------|
A|-4-----4---------4-------|-0-----0--------0-----------------|
E|-------------------------|----------------------------------|


Guitar 1

e|-----------------------------------------------|
B|-----------------------------------------------|
G|---66666666---22222222--------------44444444---|
D|---66666666---22222222---22222222---44444444---|
A|---44444444---00000000---22222222---22222222---|
E|-------------------------00000000--------------|

PM   ........   ........   ........   ........

Chorus

Guitars 1 and 2

e|----------------------------------------------------------|
B|----------------------------------------------------------|
G|---66666666-------------------------44444444---55555555---|
D|---66666666---77777777---22222222---44444444---66666666---|
A|---44444444---77777777---22222222---22222222---33333333---|
E|--------------55555555---00000000-------------------------|

e|------------------------------------------------------------------------|
B|------------------------------------------------------------------------|
G|--66666666----------------------44444444--55555555--66666666------------|
D|--66666666--77777777--22222222--44444444--66666666--66666666--77777777--|
A|--44444444--77777777--22222222--22222222--33333333--44444444--77777777--|
E|------------55555555--00000000--------------------------------55555555--|


Bridge


e|-------------------------|----------------------------------|
B|----------------------5~-|-------------------5--------------|
G|-----------4-------------|-----------4------------4~--------|
D|-2----2----------2-------|-2-----2------2-------------------|
A|-------------------------|----------------------------------|
E|-------------------------|----------------------------------|

Guitar 1

e|--------------------------------------------------|
B|--------------------------------------------------|
G|--------------------------44-4-44----666-4-6-4----|
D|----77-7-77----22-2-22----44-4-44----666-4-6-4----|
A|----77-7-77----22-2-22----22-2-22----444-2-4-2----|
E|----55-5-55----00-0-00----------------------------|

e|-----------------------------------------------------|
B|-----------------------------------------------------|
G|----------------------------44444444----666-4-6-4----|
D|----77777777----22222222----44444444----666-4-6-4----|
A|----77777777----22222222----22222222----444-2-4-2----|
E|----55555555----00000000-----------------------------|

e|--------------------------------------------------|
B|--------------------------------------------------|
G|--------------------------44-4-44----666-4-6-4----|
D|----77-7-77----22-2-22----44-4-44----666-4-6-4----|
A|----77-7-77----22-2-22----22-2-22----444-2-4-2----|
E|----55-5-55----00-0-00----------------------------|

e|-----------------------------------------------------|
B|-----------------------------------------------------|
G|----------------------------44444444----666-4-6-4----|
D|----77777777----22222222----44444444----666-4-6-4----|
A|----77777777----22222222----22222222----444-2-4-2----|
E|----55555555----00000000-----------------------------|


Guitar 2

e|----------------------------------------------------------------------|
B|----------------------------------------------------------------------|
G|--9-9-9-9-9/8\9-9-9-9-9-9-9-9-9-9-9/8\9-9-9-9/11-8-8-8-8-8-8-8-8-8-8--|
D|----------------------------------------------------------------------|
A|--7-7-7-7-7/6\7-7-7-7-7-7-7-7-7-7-7/6\7-7-7-7/9--6-6-6-6-6-6-6-6-6-6--|
E|----------------------------------------------------------------------|

e|------------------------------------------------|
B|------------------------------------------------|
G|-8888888888--11--13-13-13-13-11/13\11--9--------|
D|------------------------------------------------|x4
A|-6666666666--9---11-11-11-11--9/11\9---7--------|
E|------------------------------------------------|


Pre-Chorus

Guitar 1

e|-------------------------|----------------------------------|
B|--------------------5~---|--------------------5-------------|
G|-----------4-------------|-----------4------------4~--------|
D|-2-2-------------2-------|----------------------------------|
A|-------------------------|-2-2----------2-------------------|
E|-------------------------|----------------------------------|

e|-------------------------|----------------------------------|
B|----------------------5~-|----------------------4---5-------|
G|------------4------------|------------4-----------------4~--|
D|-------------------------|----------------------------------| x3
A|-4-4-------------4-------|-0-0------------0-----------------|
E|-------------------------|----------------------------------|


Chorus

Guitars 1 and 2

e|----------------------------------------------------------|
B|----------------------------------------------------------|
G|---66666666-------------------------44444444---55555555---|
D|---66666666---77777777---22222222---44444444---66666666---|
A|---44444444---77777777---22222222---22222222---33333333---|
E|--------------55555555---00000000-------------------------|

e|------------------------------------------------------------------------|
B|------------------------------------------------------------------------|
G|--66666666----------------------44444444--55555555--66666666------------|
D|--66666666--77777777--22222222--44444444--66666666--66666666--77777777--|
A|--44444444--77777777--22222222--22222222--33333333--44444444--77777777--|
E|------------55555555--00000000--------------------------------55555555--|

e|----------------------------------------------------------|
B|----------------------------------------------------------|
G|---66666666-------------------------44444444---55555555---|
D|---66666666---77777777---22222222---44444444---66666666---|
A|---44444444---77777777---22222222---22222222---33333333---|
E|--------------55555555---00000000-------------------------|

e|------------------------------------------------------------------------|
B|------------------------------------------------------------------------|
G|--66666666----------------------44444444--55555555--66666666------------|
D|--66666666--77777777--22222222--44444444--66666666--66666666--77777777--|
A|--44444444--77777777--22222222--22222222--33333333--44444444--77777777--|
E|------------55555555--00000000--------------------------------55555555--|

End on 

e|-------------|
B|-------------|
G|-------------|
D|------2------|
A|------2------|
E|------0------|


Piano Ending

e|---14-14---------------14-14--------------|
B|---------16-16--14~----------16-16--12~---|
G|------------------------------------------|
D|------------------------------------------|
A|------------------------------------------|
E|------------------------------------------|

e|---14-14---------------14-14--------------|
B|---------16-16--14~----------16-16--12~---|
G|------------------------------------------|
D|------------------------------------------|
A|------------------------------------------|
E|------------------------------------------|

e|---14-14-------------------------|
B|---------16-16--14~-----12~~~~---|
G|---------------------------------|
D|---------------------------------|
A|---------------------------------|
E|---------------------------------|
comments
We did not receive enough feedback on this tab! Please rate:
print report bad tab
1 2 3 4 5
I want to post or [tab]
guest
You may want to rate the tab now too:
select rating
Please do not post tabs as comments. Select "correction" instead!