Oops, an error
Loading. Please wait.

Blue Orchids Tab

ver1
ver1

Whole song

Interactive

More versions @911Tabs.com
4,909 views 6 this week
1 commentread comment
1 2 3 4 5
accurate
x 3
add to favorites launch autoscroll
font size
0
reset
Autoscroll
+/-
esc
set tempo
stop
Tuning
D A D F# A D
WARNING: You are trying to view
                                    content from Ultimate-Guitar.com
                                    in an unauthorized application,
                                    which is prohibited.

                                    Please use an official Ultimate
                                    Guitar Tabs application for iPhone,
                                    iPad or Android to access legitimate
                                    chords, guitar, bass, and drum tabs
                                    from Ultimate-Guitar.com database.

                                    Type "ultimate guitar tabs" in Apple
                                    App Store's or Android Market's
                                    search to find the application.
Blue Orchids - Sun Kil Moon

Tabbed by: Teddy Dlukulu

(Capo 3)

     Q    E  E  E  E   E  E     E  E  E  E  E  E  E  E   
D||--0-------------0h--2--5--|-----------0--------------|
A||----------3---------------|-----------------------3--|
G||--------------------------|-----0-----------0--------|
D||-------0------------------|--------0-----------0-----|
A||--3----------3------------|--3-----------2-----------|
D||--------------------------|--------------------------|


  E  E  E  E  E  E  E  E      E  E  E  E  E  E  E  E   
---------------------------|-----------------------0--|
-----------2-----------0h--|-----2--------------------|
-----0-----------0---------|-----------0-----2--------|
--------0-----------0------|--------0-----------------|
--0-----------0------------|--------------------5-----|
---------------------------|--5-----------5-----------|


  Q    E  E  E  E   E  E     E  E  E  E  E  E  E  E   
----------------0h--2--5--|-----------0--------------|
----------3---------------|-----------------------3--|
--------------------------|-----0-----------0--------|
-------0------------------|--------0-----------0-----|
--3----------3------------|--3-----------2-----------|
--------------------------|--------------------------|


  E  E  E  E  E  E  E  E     E  E  E  E  E  E  E  E   
--------------------------|-----------0--------------|
-----------2--------------|--------------------------|
-----0-----------0-----0--|-----0-----------0--------|
--------0-----------0-----|--------0--------------0--|
--0-----------------------|--------------5-----------|
--------------5-----------|--5-----------------5-----|


    Q    E  E  E  E  E  E     E  E  E  E  E  E  E  E   
|-----------------------5--|-----------0--------------|
|-----------3--------------|-----------------------3--|
|*----------------0--------|-----0-----------0--------|
|*-------0-----------0-----|--------0-----------0-----|
|---3----------3-----------|--3-----------2-----------|
|--------------------------|--------------------------|


  E  E  E  E  E  E  E  E     E  E  E  E  E  E  E  E     Q    E  E  E  E  E  E   
--------------------------|-----------------------0--|----------------------5--|
-----------2-----------0--|-----2--------------------|----------3--------------|
-----0-----------0--------|-----------0-----2--------|----------------0--------|
--------0-----------0-----|--------0-----------------|-------0-----------0-----|
--0-----------0-----------|--------------------5-----|--3----------3-----------|
--------------------------|--5-----------5-----------|-------------------------|


  E  E  E  E  E  E  E  E     E  E  E  E  E  E  E  E   
-----------0--------------|--------------------------|
-----------------------3--|-----------2--------------|
-----0-----------0--------|-----0-----------0-----0--|
--------0-----------0-----|--------0-----------0-----|
--3-----------2-----------|--0-----------------------|
--------------------------|--------------5-----------|


  E  E  E  E  E  E  E  E       Q    E  E  E  E  S  S  S  S  
-----------0---------------||--0-------------0--1h-2h-5p-2-|
---------------------------||----------3-------------------|
-----0-----------0--------*||------------------------------|
--------0--------------0--*||-------0----------------------|
--------------5------------||--3----------3----------------|
--5-----------------5------||------------------------------|


  E  E  E  E  E  E  E  E     E  E  E  E  E  E  E  E    
-----------0--------------|---------------------------|
-----------------------3--|-----------2-----------0h--|
-----0-----------0--------|-----0-----------0---------|
--------0-----------0-----|--------0-----------0------|
--3-----------2-----------|--0-----------0------------|
--------------------------|---------------------------|


  E  E  E  E  E  E  E  E     Q    E  E  E  E  S  S  S  S  
-----------------------0--|----------------0--1h-2h-5p-2-|
-----2--------------------|----------3-------------------|
-----------0-----2--------|------------------------------|
--------0-----------------|-------0----------------------|
--------------------5-----|--3----------3----------------|
--5-----------5-----------|------------------------------|


  E  E  E  E  E  E  E  E     E  E  E  E  E  E  E  E   
-----------0--------------|--------------------------|
-----------------------3--|-----------2--------------|
-----0-----------0--------|-----0-----------0-----0--|
--------0-----------0-----|--------0-----------0-----|
--3-----------2-----------|--0-----------------------|
--------------------------|--------------5-----------|


  E  E  E  E  E  E  E  E     Q    E  E  E  E  E  E     E  E  E  E  E  E  E  E   
-----------0--------------|--0-------------------5--|-----------0--------------|
--------------------------|----------3--------------|-----------------------3--|
-----0-----------0-----0--|----------------0--------|-----0-----------0--------|
--------0-----------0-----|-------0-----------0-----|--------0-----------0-----|
--------------5-----------|--3----------3-----------|--3-----------2-----------|
--5-----------------------|-------------------------|--------------------------|


  E  E  E  E  E  E  E  E     E  E  E  E  E  E  E  E     Q    E  E  E  E  E  E   
--------------------------|-----------------------0--|----------------------5--|
-----------2-----------0--|-----2--------------------|----------3--------------|
-----0-----------0--------|-----------0-----2--------|----------------0--------|
--------0-----------0-----|--------0-----------------|-------0-----0-----0-----|
--0-----------0-----------|--------------------5-----|--3----------------------|
--------------------------|--5-----------5-----------|-------------------------|


  E  E  E  E  E  E  E  E     E  E  E  E  E  E  E  E   
-----------0--------------|--------------------------|
-----------------------3--|-----------2--------------|
-----0-----------0--------|-----0-----------0-----0--|
--------0-----------0-----|--------0-----------0-----|
--3-----------2-----------|--0-----------------------|
--------------------------|--------------5-----------|


  E  E  E  E  E  E  E  E     Q    E  E  E  E  E  E     E  E  E  E  E  E  E  E   
-----------0-----------0--|----------------------5--|-----------0--------------|
--------------------------|----------3--------------|-----------------------3--|
-----0-----------0--------|----------------0--------|-----0-----------0--------|
--------0-----------------|-------0-----------0-----|--------0-----------0-----|
--------------5-----------|--3----------3-----------|--3-----------2-----------|
--5-----------------5-----|-------------------------|--------------------------|


  E  E  E  E  E  E  E  E     E  E  E  E  E  E  E  E     Q    E  E  E  E  E  E   
--------------------------|-----------------------0--|----------------------5--|
-----------2-----------0--|-----2--------------------|----------3--------------|
-----0-----------0--------|-----------0-----2--------|----------------0--------|
--------0-----------0-----|--------0-----------------|-------0-----0-----0-----|
--0-----------0-----------|--------------------5-----|--3----------------------|
--------------------------|--5-----------5-----------|-------------------------|


  E  E  E  E  E  E  E  E     E  E  E  E  E  E  E  E   
-----------0--------------|--------------------------|
-----------------------3--|-----------2--------------|
-----0-----------0--------|-----0-----------0-----0--|
--------0-----------0-----|--------0-----------0-----|
--3-----------2-----------|--0-----------------------|
--------------------------|--------------5-----------|


  E  E  E  E  E  E  E  E     E  E  E  E  E  E  E  E   
-----------0-----------3--|-----------2--------------|
--------------------------|-----------------------3--|
-----0-----------0--------|-----0-----------0--------|
--------0-----------------|--------0-----------0-----|
--------------5-----------|--------------------------|
--5-----------------5-----|--3-----------3-----------|


  E  E  E  E  E  E  E  E     E  E  E  E  E  E  E  E   
--------------------------|-----------0--------------|
-----------------------0--|-----------------------3--|
-----0-----0-----0--------|-----0-----------0--------|
--------0-----------0-----|--------0-----------0-----|
--------------------------|--------------------------|
--2-----------2-----------|--3-----------3-----------|


  E  E  E  E  E  E  E  E     E  E  E  E  E  E  E  E   
-----------------------8--|-----------7-----------3--|
--------------------------|--------------------------|
-----0-----0-----0--------|-----0-----------0--------|
--------0-----------0-----|--------0-----------0-----|
--------------------------|--------------------------|
--2-----------2-----------|--8-----------8-----------|


  E  E  E  E  E  E  E  E     E  E  E  E  E  E  E  E   
-----------------------0--|-----------5-----------3--|
-----------3--------------|--------------------------|
-----0-----------0--------|-----0-----------0--------|
--------0-----------0-----|--------0-----------0-----|
--------------------------|--1-----------1-----------|
--3-----------3-----------|--------------------------|


  E  E  E  E  E  E  E  E      E  E  E  E  E  E  E  E   
---------------------------|-----------------------0--|
-----3-----------------0h--|-----1-----0--------------|
-----------0-----0---------|-----0-----------0--------|
--------0-----------0------|--------0-----0-----0-----|
---------------------------|--1--------1--------------|
--3-----------3------------|--------------------------|


  E  E  E  E  E  E  E  E      E  E  E  E  E  E  E  E   
---------------------------|-----------------------0--|
-----------0-----------0h--|-----1-----0--------------|
-----0-----------0---------|-----0-----------0--------|
--------0-----------0------|--------0-----------0-----|
---------------------------|--1-----------------------|
--0-----------0------------|--------------0-----------|


  Q    E  E  E  E   E  E     E  E  E  E  E  E  E  E   
----------------0h--2--5--|-----------0--------------|
----------3---------------|-----------------------3--|
--------------------------|-----0-----------0--------|
-------0------------------|--------0-----------0-----|
--3----------3------------|--3-----------2-----------|
--------------------------|--------------------------|


  E  E  E  E  E  E  E  E      E  E  E  E  E  E  E  E   
---------------------------|-----------------------0--|
-----------2-----------0h--|-----2--------------------|
-----0-----------0---------|-----------0-----2--------|
--------0-----------0------|--------0-----------------|
--0-----------0------------|--------------------5-----|
---------------------------|--5-----------5-----------|


  Q    E  E  E  E   E  E     E  E  E  E  E  E  E  E   
----------------0h--2--5--|-----------0--------------|
----------3---------------|-----------------------3--|
--------------------------|-----0-----------0--------|
-------0------------------|--------0-----------0-----|
--3----------3------------|--3-----------2-----------|
--------------------------|--------------------------|


  E  E  E  E  E  E  E  E     E  E  E  E  E  E  E  E   
--------------------------|-----------0--------------|
-----------2--------------|--------------------------|
-----0-----------0-----0--|-----0-----------0--------|
--------0-----------0-----|--------0--------------0--|
--0-----------------------|--------------5-----------|
--------------5-----------|--5-----------------5-----|


    Q    E  E  E  E  E  E     E  E  E  E  E  E  E  E   
|-----------------------5--|-----------0--------------|
|-----------3--------------|-----------------------3--|
|*----------------0--------|-----0-----------0--------|
|*-------0-----------0-----|--------0-----------0-----|
|---3----------3-----------|--3-----------2-----------|
|--------------------------|--------------------------|


  E  E  E  E  E  E  E  E     E  E  E  E  E  E  E  E     Q    E  E  E  E  E  E   
--------------------------|-----------------------0--|----------------------5--|
-----------2-----------0--|-----2--------------------|----------3--------------|
-----0-----------0--------|-----------0-----2--------|----------------0--------|
--------0-----------0-----|--------0-----------------|-------0-----------0-----|
--0-----------0-----------|--------------------5-----|--3----------3-----------|
--------------------------|--5-----------5-----------|-------------------------|


  E  E  E  E  E  E  E  E     E  E  E  E  E  E  E  E   
-----------0--------------|--------------------------|
-----------------------3--|-----------2--------------|
-----0-----------0--------|-----0-----------0-----0--|
--------0-----------0-----|--------0-----------0-----|
--3-----------2-----------|--0-----------------------|
--------------------------|--------------5-----------|


  E  E  E  E  E  E  E  E       Q    E  E  E  E  S  S  S  S  
-----------0---------------||--0-------------0--1h-2h-5p-2-|
---------------------------||----------3-------------------|
-----0-----------0--------*||------------------------------|
--------0--------------0--*||-------0----------------------|
--------------5------------||--3----------3----------------|
--5-----------------5------||------------------------------|


  E  E  E  E  E  E  E  E     E  E  E  E  E  E  E  E    
-----------0--------------|---------------------------|
-----------------------3--|-----------2-----------0h--|
-----0-----------0--------|-----0-----------0---------|
--------0-----------0-----|--------0-----------0------|
--3-----------2-----------|--0-----------0------------|
--------------------------|---------------------------|


  E  E  E  E  E  E  E  E     Q    E  E  E  E  S  S  S  S  
-----------------------0--|----------------0--1h-2h-5p-2-|
-----2--------------------|----------3-------------------|
-----------0-----2--------|------------------------------|
--------0-----------------|-------0----------------------|
--------------------5-----|--3----------3----------------|
--5-----------5-----------|------------------------------|


  E  E  E  E  E  E  E  E     E  E  E  E  E  E  E  E   
-----------0--------------|--------------------------|
-----------------------3--|-----------2--------------|
-----0-----------0--------|-----0-----------0-----0--|
--------0-----------0-----|--------0-----------0-----|
--3-----------2-----------|--0-----------------------|
--------------------------|--------------5-----------|


  E  E  E  E  E  E  E  E     Q    E  E  E  E  E  E     E  E  E  E  E  E  E  E   
-----------0--------------|--0-------------------5--|-----------0--------------|
--------------------------|----------3--------------|-----------------------3--|
-----0-----------0-----0--|----------------0--------|-----0-----------0--------|
--------0-----------0-----|-------0-----------0-----|--------0-----------0-----|
--------------5-----------|--3----------3-----------|--3-----------2-----------|
--5-----------------------|-------------------------|--------------------------|


  E  E  E  E  E  E  E  E     E  E  E  E  E  E  E  E     Q    E  E  E  E  E  E   
--------------------------|-----------------------0--|----------------------5--|
-----------2-----------0--|-----2--------------------|----------3--------------|
-----0-----------0--------|-----------0-----2--------|----------------0--------|
--------0-----------0-----|--------0-----------------|-------0-----0-----0-----|
--0-----------0-----------|--------------------5-----|--3----------------------|
--------------------------|--5-----------5-----------|-------------------------|


  E  E  E  E  E  E  E  E     E  E  E  E  E  E  E  E   
-----------0--------------|--------------------------|
-----------------------3--|-----------2--------------|
-----0-----------0--------|-----0-----------0-----0--|
--------0-----------0-----|--------0-----------0-----|
--3-----------2-----------|--0-----------------------|
--------------------------|--------------5-----------|


  E  E  E  E  E  E  E  E     Q    E  E  E  E  E  E     E  E  E  E  E  E  E  E   
-----------0-----------0--|----------------------5--|-----------0--------------|
--------------------------|----------3--------------|-----------------------3--|
-----0-----------0--------|----------------0--------|-----0-----------0--------|
--------0-----------------|-------0-----------0-----|--------0-----------0-----|
--------------5-----------|--3----------3-----------|--3-----------2-----------|
--5-----------------5-----|-------------------------|--------------------------|


  E  E  E  E  E  E  E  E     E  E  E  E  E  E  E  E     Q    E  E  E  E  E  E   
--------------------------|-----------------------0--|----------------------5--|
-----------2-----------0--|-----2--------------------|----------3--------------|
-----0-----------0--------|-----------0-----2--------|----------------0--------|
--------0-----------0-----|--------0-----------------|-------0-----0-----0-----|
--0-----------0-----------|--------------------5-----|--3----------------------|
--------------------------|--5-----------5-----------|-------------------------|


  E  E  E  E  E  E  E  E     E  E  E  E  E  E  E  E   
-----------0--------------|--------------------------|
-----------------------3--|-----------2--------------|
-----0-----------0--------|-----0-----------0-----0--|
--------0-----------0-----|--------0-----------0-----|
--3-----------2-----------|--0-----------------------|
--------------------------|--------------5-----------|


  E  E  E  E  E  E  E  E     E  E  E  E  E  E  E  E   
-----------0-----------3--|-----------2--------------|
--------------------------|-----------------------3--|
-----0-----------0--------|-----0-----------0--------|
--------0-----------------|--------0-----------0-----|
--------------5-----------|--------------------------|
--5-----------------5-----|--3-----------3-----------|


  E  E  E  E  E  E  E  E     E  E  E  E  E  E  E  E   
--------------------------|-----------0--------------|
-----------------------0--|-----------------------3--|
-----0-----0-----0--------|-----0-----------0--------|
--------0-----------0-----|--------0-----------0-----|
--------------------------|--------------------------|
--2-----------2-----------|--3-----------3-----------|


  E  E  E  E  E  E  E  E     E  E  E  E  E  E  E  E   
-----------------------8--|-----------7-----------3--|
--------------------------|--------------------------|
-----0-----0-----0--------|-----0-----------0--------|
--------0-----------0-----|--------0-----------0-----|
--------------------------|--------------------------|
--2-----------2-----------|--8-----------8-----------|


  E  E  E  E  E  E  E  E     E  E  E  E  E  E  E  E   
-----------------------0--|-----------5-----------3--|
-----------3--------------|--------------------------|
-----0-----------0--------|-----0-----------0--------|
--------0-----------0-----|--------0-----------0-----|
--------------------------|--1-----------1-----------|
--3-----------3-----------|--------------------------|


  E  E  E  E  E  E  E  E      E  E  E  E  E  E  E  E   
---------------------------|-----------------------0--|
-----3-----------------0h--|-----1-----0--------------|
-----------0-----0---------|-----0-----------0--------|
--------0-----------0------|--------0-----0-----0-----|
---------------------------|--1--------1--------------|
--3-----------3------------|--------------------------|


  E  E  E  E  E  E  E  E      E  E  E  E  E  E  E  E   
---------------------------|-----------------------0--|
-----------0-----------0h--|-----1-----0--------------|
-----0-----------0---------|-----0-----------0--------|
--------0-----------0------|--------0-----------0-----|
---------------------------|--1-----------------------|
--0-----------0------------|--------------0-----------|


  E   S  S S  S  S S  S  S S  S  S S  E     E  Q.      H         
-----------------------------------------|--0--3S------7--------|
-----------------------------------1h-3--|----------------------|
---------------------------0h-2h-3-------|----------------------|
-------------------0h-2h-3---------------|----------------------|
-----------0h-2h-3-----------------------|----------------------|
--0h--2h-3-------------------------------|----------------------|


  W                   W                   W                 
--5----------------|--2----------------|--0----------------|
-------------------|-------------------|-------------------|
-------------------|-------------------|-------------------|
-------------------|-------------------|-------------------|
-------------------|-------------------|-------------------|
-------------------|-------------------|-------------------|


  E   S   S  E   S   S  E   S   S     E   S   S  E   S   S  E   S   S   
---------(3)--------(3)--------(3)-|---------(2)--------(2)--------(2)-|
-----(0)--------(0)--------(0)-----|-----(0)--------(0)--------(0)-----|
------------------------2----------|------------------------2----------|
-------------0---------------------|-------------0---------------------|
--1--------------------------------|--1--------------------------------|
-----------------------------------|-----------------------------------|


  E   S   S  E   S   S  E   S   S     E   S   S  E   S   S  E   S   S   
---------(0)--------(0)--------(0)-|---------(0)--------(0)--------(0)-|
-----(0)--------(0)--------(0)-----|-----(0)--------(0)--------(0)-----|
------------------------2----------|------------------------2----------|
-------------0---------------------|-------------0---------------------|
--1--------------------------------|--1--------------------------------|
-----------------------------------|-----------------------------------|


  E   S   S  E   S   S  E   S   S     E   S   S  E   S   S  E   S   S   
---------(3)--------(3)--------(3)-|---------(2)--------(2)--------(2)-|
-----(0)--------(0)--------(0)-----|-----(0)--------(0)--------(0)-----|
------------------------0----------|------------------------0----------|
-------------3---------------------|-------------2---------------------|
-----------------------------------|-----------------------------------|
--0--------------------------------|--0--------------------------------|


  E   S   S  E   S   S  E   S   S     E   S   S  E   S   S  E   S   S   
---------(0)--------(0)--------(0)-|---------(0)--------(0)--------(0)-|
-----(0)--------(0)--------(0)-----|-----(0)--------(0)--------(0)-----|
------------------------2----------|-----------------------------------|
-------------0---------------------|------------------------5----------|
-----------------------------------|-------------5---------------------|
--0--------------------------------|--0--------------------------------|


  E   S   S  E   S   S  E   S   S     E   S   S  E   S   S  E   S   S   
---------(3)--------(3)--------(3)-|---------(2)--------(2)--------(2)-|
-----(0)--------(0)--------(0)-----|-----(0)--------(0)--------(0)-----|
------------------------2----------|------------------------2----------|
-------------0---------------------|-------------0---------------------|
--1--------------------------------|--1--------------------------------|
-----------------------------------|-----------------------------------|


  E   S   S  E   S   S  E   S   S     E   S   S  E   S   S  E   S   S   
---------(0)--------(0)--------(0)-|---------(0)--------(0)--------(0)-|
-----(0)--------(0)--------(0)-----|-----(0)--------(0)--------(0)-----|
------------------------2----------|------------------------2----------|
-------------0---------------------|-------------0---------------------|
--1--------------------------------|--1--------------------------------|
-----------------------------------|-----------------------------------|


  E   S   S  E   S   S  E   S   S     E   S   S  E   S   S  E   S   S   
---------(3)--------(3)--------(3)-|---------(2)--------(2)--------(2)-|
-----(0)--------(0)--------(0)-----|-----(0)--------(0)--------(0)-----|
------------------------0----------|------------------------0----------|
-------------3---------------------|-------------2---------------------|
-----------------------------------|-----------------------------------|
--0--------------------------------|--0--------------------------------|


  E   S   S  E   S   S  E   S   S     E    S   S  E   S   S  E   S   S   
---------(0)--------(0)--------(0)-|----------(0)--------(0)--------(0)-|
-----(0)--------(0)--------(0)-----|------(0)--------(0)--------(0)-----|
-----------------------------------|--0h---2------0---------------------|
------------------------5----------|-------------------------3----------|
-------------5---------------------|------------------------------------|
--0--------------------------------|--0---------------------------------|


  E   S   S  E   S   S  E   S   S     E   S   S  E   S   S  E   S   S   
---------(3)--------(3)--------(3)-|---------(2)--------(2)--------(2)-|
-----(0)--------(0)--------(0)-----|-----(0)--------(0)--------(0)-----|
------------------------0----------|------------------------0----------|
-------------3---------------------|-------------3---------------------|
--1--------------------------------|--1--------------------------------|
-----------------------------------|-----------------------------------|


  E   S   S  E   S   S  E   S   S     E    S   S  E   S   S  E   S   S   
---------(0)--------(0)--------(0)-|----------(0)--------(0)--------(0)-|
-----(0)--------(0)--------(0)-----|------(0)--------(0)--------(0)-----|
------------------------0----------|--0h---2------0---------------------|
-------------3---------------------|-------------------------3----------|
--1--------------------------------|--1---------------------------------|
-----------------------------------|------------------------------------|


  E   S   S  E   S   S  E   S   S     E   S   S  E   S   S  E   S   S   
---------(3)--------(3)--------(3)-|---------(2)--------(2)--------(2)-|
-----(0)--------(0)--------(0)-----|-----(0)--------(0)--------(0)-----|
------------------------0----------|-----------------------------------|
-------------2---------------------|------------------------3----------|
-----------------------------------|-------------5---------------------|
--0--------------------------------|--0--------------------------------|


  E   S   S  E   S   S  E   S   S     E    S   S  E   S   S  E   S   S   
---------(0)--------(0)--------(0)-|----------(0)--------(0)--------(0)-|
-----(0)--------(0)--------(0)-----|------(0)--------(0)--------(0)-----|
-----------------------------------|--0h---2------0---------------------|
------------------------0----------|-------------------------3----------|
-------------0---------------------|------------------------------------|
--0--------------------------------|--0---------------------------------|


  E   S   S  E   S   S  E   S   S     E   S   S  E   S   S  E   S   S   
---------(3)--------(3)--------(3)-|---------(2)--------(2)--------(2)-|
-----(0)--------(0)--------(0)-----|-----(0)--------(0)--------(0)-----|
------------------------0----------|------------------------0----------|
-------------3---------------------|-------------3---------------------|
--1--------------------------------|--1--------------------------------|
-----------------------------------|-----------------------------------|


  E   S   S  E   S   S  E   S   S     E    S   S  E   S   S  E   S   S   
---------(0)--------(0)--------(0)-|----------(0)--------(0)--------(0)-|
-----(0)--------(0)--------(0)-----|------(0)--------(0)--------(0)-----|
------------------------0----------|--0h---2------0---------------------|
-------------3---------------------|-------------------------3----------|
--1--------------------------------|--1---------------------------------|
-----------------------------------|------------------------------------|


  E   S   S  E   S   S  E   S   S     E   S   S  E   S   S  E   S   S   
---------(3)--------(3)--------(3)-|---------(2)--------(2)--------(2)-|
-----(0)--------(0)--------(0)-----|-----(0)--------(0)--------(0)-----|
------------------------0----------|-----------------------------------|
-------------2---------------------|------------------------3----------|
-----------------------------------|-------------5---------------------|
--0--------------------------------|--0--------------------------------|


  E   S   S  E   S   S  E   S   S     E   S   S  E   S   S  E   S   S   
---------(0)--------(0)--------(0)-|---------(0)--------(0)--------(0)-|
-----(0)--------(0)--------(0)-----|-----(0)--------(0)--------(0)-----|
-----------------------------------|-----------------------------------|
------------------------0----------|------------------------0-------5S-|
-------------0---------------------|-------------0---------------------|
--0--------------------------------|--0--------------------------------|


    E   S   S   E   S   S  E   S   S     E   S   S   E   S   S  E    S   S   
|----------(0)---------(0)--------(0)-|---------(0)---------(0)---------(0)-|
|------(0)---------(0)--------(0)-----|-----(0)---------(0)---------(0)-----|
|*------------------------------------|-------------------------------------|
|*--8----------------------8----------|--7----------------------7S----------|
|--------------10---------------------|-------------10----------------------|
|-------------------------------------|-------------------------------------|


  E   S   S  E   S   S  E   S   S     E   S   S  E   S   S  E   S   S     
---------(0)--------(0)--------(0)-|---------(0)--------(0)--------(0)--||
-----(0)--------(0)--------(0)-----|-----(0)--------(0)--------(0)------||
-------------0---------------------|-------------0---------------------*||
--3---------------------3----------|--2---------------------2----------*||
-----------------------------------|------------------------------------||
-----------------------------------|------------------------------------||


  E   S  S S  S  S S  S  S S  S  S S  E     E  Q.      H         
-----------------------------------------|--0--3S------7--------|
-----------------------------------1h-3--|----------------------|
---------------------------0h-2h-3-------|----------------------|
-------------------0h-2h-3---------------|----------------------|
-----------0h-2h-3-----------------------|----------------------|
--0h--2h-3-------------------------------|----------------------|


  W                   W                   W                 
--5----------------|--2----------------|-------------------|
-------------------|-------------------|-------------------|
-------------------|-------------------|-------------------|
-------------------|-------------------|-------------------|
-------------------|-------------------|-------------------|
-------------------|-------------------|-------------------|


  Q    E  E  E  E  E  E     Q    E  E  E  E  E  E     Q    E  E  E  E  E  E   
--0-------------------0--|----------------------0--|----------------2-----0--|
----------0--------------|----------0--------------|----------3--------------|
----------------0--------|----------------0--------|-------------------------|
-------0-----------0-----|-------0-----------0-----|-------0-----------0-----|
-------------------------|-------------------------|--0----------0-----------|
--3----------3-----------|--5----------5-----------|-------------------------|


  Q    E  E  E  E  E  E       Q    E  E  E  E  E  E     Q    E  E  E  E  E  E   
----------------------0--||-----------------------0--|----------------------0--|
----------0--------------||-----------0--------------|----------0--------------|
----------------0--------||*----------------0--------|----------------0--------|
-------0-----------0-----||*-------0-----------0-----|-------0-----------0-----|
-------------------------||--------------------------|-------------------------|
--2----------2-----------||---3----------3-----------|--5----------5-----------|


  Q    E  E  E  E  E  E     Q    E  E  E  E  E  E  16x  Q    E  E  E  E  E  E   
----------------2-----0--|----------------------0---||----------------------0--|
----------3--------------|----------0---------------||----------0--------------|
-------------------------|----------------0--------*||----------------0--------|
-------0-----------0-----|-------0-----------0-----*||-------0-----------0-----|
--0----------0-----------|--------------------------||-------------------------|
-------------------------|--2----------2------------||--3----------3-----------|


  Q    E  E  E  E  E  E     E   S  S S  S  S S  S  S S  S  S S  E   
----------------------0--|-----------------------------------------|
----------0--------------|-----------------------------------1h-3--|
----------------0--------|---------------------------0h-2h-3-------|
-------0-----------0-----|-------------------0h-2h-3---------------|
-------------------------|-----------0h-2h-3-----------------------|
--5----------5-----------|--0h--2h-3-------------------------------|


  E  Q.      H           W                   W                 
--0--3S------7--------|--5----------------|--2----------------|
----------------------|-------------------|-------------------|
----------------------|-------------------|-------------------|
----------------------|-------------------|-------------------|
----------------------|-------------------|-------------------|
----------------------|-------------------|-------------------|


  W                   S S S S Q    H           W                  
--0----------------|------------------------|-------------------||
-------------------|------------------------|-------------------||
-------------------|--------0---------------|--0----------------||
-------------------|------0---0----4--------|-------------------||
-------------------|----0-------------------|-------------------||
-------------------|--0---------------------|-------------------||




Duration Legend
---------------
W - whole
H - half
Q - quarter
E - 8th
S - 16th
T - 32nd
X - 64th
. - note dotted
|-n-|  - n-tuplets


Tablature Legend
----------------
L - tied note
x - dead note
g - grace note
(n) - ghost note
> - accentuded note
NH - natural harmonic
AH - artificial harmonic
TH - tapped harmonic
SH - semi harmonic
PH - pitch harmonic
h - hammer on
p - pull off
b - bend
br - bendRelease
pb - preBend
pbr - preBendRelease
brb - bendReleaseBend
\n/ - tremolo bar dip
\n - tremolo bar dive
-/n - tremolo bar Release up
/n\ - tremolo bar inverted dip
/n - tremolo bar return
-\n - tremolo bar Release down
S - shift slide
s - legato slide
/ -  slide into from below or out of upwards
\ -  slide into from above or out of downwards
~ - vibrato
W - wide vibrato
tr - trill
TP - tremolo picking
T - tapping
S - slap
P - pop
< - fade in
^ - brush up
v - brush down

Lyrics:

The ancient streets so crowded and narrow
The winding stairs climb up, up high
The air tonight hangs sour and heavy
I'm dying up here love, lie with me lie


The view electrical and sprawling
The city lights move out and on and on
Out there in the halo of the skyline
My guardian angel looks down upon me


Fall tonight sweet Paris Rain
Shower me in her warm kisses


A burning star over long lost highways
My fallen love died so young
And all the gifts you gave I have them
And all your love I'm still holding onto


She rides the halo of the skyline
My fallen sister died so young
Our last goodbye I wanted to be there
To bathe the loss from your fading eyes


Close these sweeping long gray curtains
The dizzying spiraling heights


Soft light pours into the room
Fingers glide over my face
A voice speaks, a figure moves
How could I walk these old dim halls again
How could I leave this room all alone


When she comes by every morning
Brings back pink and pale blue orchids
When she comes by every afternoon
Piano music weeps quietly
As May melts into June
When she comes by every evening
Lays down beside me softly breathing 
comments
We did not receive enough feedback on this tab! Please rate:
print report bad tab
1 2 3 4 5
1 comment total.
0 reply
ninjamofo wrote on August 30 2012, 09:55 pm

I think the tuning should be: DADGAD

I want to post or [tab]
guest
You may want to rate the tab now too:
select rating
Please do not post tabs as comments. Select "correction" instead!