Oops, an error
Loading. Please wait.

Young Love Tab

1,008 views 3 this week
no commentswrite comment
1 2 3 4 5
please rate
Autoscroll
+/-
esc
set tempo
stop
Difficulty
advanced
NEW! There's an official Ultimate Guitar app which is ideal
for learning songs when you're away from computer. Get the app
WARNING: You are trying to view
                                    content from Ultimate-Guitar.com
                                    in an unauthorized application,
                                    which is prohibited.

                                    Please use an official Ultimate
                                    Guitar Tabs application for iPhone,
                                    iPad or Android to access legitimate
                                    chords, guitar, bass, and drum tabs
                                    from Ultimate-Guitar.com database.

                                    Type "ultimate guitar tabs" in Apple
                                    App Store's or Android Market's
                                    search to find the application.
Young Love
Among the Leaves

(ultralex.hebert@gmail.com)

intro

Db---12-------7-------4------0----------------------------|
Ab--------------------------------------------------------|
Gb--11-------6-------2------------------------------------|
Db-------------------------4----------4-------------------|
Ab--------------------------------0-----------------------|
Db-0--------0-------0----0--------------------------------|


Db-----2-4-5---------0------------------------------------|
Ab--------------4-------------------------0---------------|
Gb----0---------0-----------------------------------------|
Db------------------4---------4---------------------------|
Ab---------0---------------0------------------------------|
Db---5-------------0--------------------------------------|


Db----12------7-------4-----------------------------------|
Ab---------------------------0----------------------------|
Gb---11------6-------2-----------0------------------------|
Db-----------------------------------4--------------------|
Ab---------------------------2----------------------------|
Db--9-------4-------0-------------------------------------|


Db-----2-4-5---------2----0-------------------------------|
Ab--------------4-----------------------------------------|
Gb----0---------0-----------------------------------------|
Db------------------5----4--------------------------------|
Ab---------0----------------------0-----------------------|
Db---5-------------0----0---------------------------------|


Db--------------------------------------------------------|
Ab---------0--4--5--7--9----------------------------------|
Gb------0-----------------0-------------------------------|
Db---4-----------------------4--2--0----------------------|
Ab--------------------------------------------------------|
Db--0------------------0--------------11------------------|


Db-(bar on 7)-------------------7-------------------------|
Ab--------------7--9--10----------------9--------10--9----|
Gb-----------7-------------9-------7--------7----9---7----|
Db-----7--11----------------------------------------------|
Ab--------------------------------------------------------|
Db--7-------------------------------------------0---------|


Db--10---10--9-------9-11-12-------7-------4-------0------|
Ab-----------------0--------------------------------------|
Gb-------0------------------------6--------2--------------|
Db-------------------------------------------------4------|
Ab--------------------------------------------------------|
Db------5-----------------------0-------0-------0---------|


Db----2--4-5-4-------------2-------------0----------------|
Ab---------------4----------------------------------------|
Gb---0-----------0----------------------------------------|
Db------------------------5-------------4-----------------|
Ab-----------0--------------------------------------------|
Db--5--------------------0-------------0------------------|


Db---------------------------------------------------------|
Ab-----------------------------------------12--------------|
Gb-------------9-10-----------9-10-12-----10---------------|
Db-----8-10-12----------10-12-------------------0----------|
Ab--8------------------------------------------------------|
Db--0-----------------8------------------0-----------------|


Db--11-12-14-15------10-----------------------------------|
Ab------------------------------13-12-10----12------------|
Gb---------------0-------0-----------------10-------------|
Db-------------------8--------0------------------0--------|
Ab--------------------------------------------------------|
Db----------------------------------------0---------------|


Db--11-12-14-15------10-----------------------------------|
Ab------------------------------13-12-10----12------------|
Gb---------------0-------0-----------------10-------------|
Db-------------------8--------0------------------0--------|
Ab--------------------------------------------------------|
Db----------------------------------------0---------------|


Db--12------12----------10-10p7p0-------------------------|
Ab------12------12------0----------------------0----------|
Gb-----------------------------------10--9--7-------------|
Db--------------------------------------------------------|
Ab--------------------------------------------------------|
Db---------------------8----------------------------------|


Db----------------------7---------------------------------|
Ab--------------------------0-----3p0---------------------|
Gb---------6--7--9--10----------------0-------------------|
Db--------------------------------------3-0----------7----|
Ab-----0--------------------------1---------3-------------|
Db--0-----------------------------------------------------|

Db----------------------7---------10-10p7p0---------------|
Ab--------------------------0-----0-----------------------|
Gb---------6--7--9--10-----------------------10--9--------|
Db--------------------------------------------------10----|
Ab-----0--------------------------------------------------|
Db--0----------------------------8------------------------|


Db--------------------------------------------------------|
Ab---8-----7-----5------10------------9-------------------|
Gb--------------------------------------------------------|
Db---7-----5-----3-----9---------7------------------------|
Ab--------------------------------------------------------|
Db--------------------------------------------------------|


Main part

Db---------0-------------0-------------0-------------0----|
Ab--------2-------------2-------------2-------------2-----|
Gb-----------0-------------0-------------0-------------0--|
Db------2-------------2-------------2-------------2-------|
Ab-0-------------0-------------0-------------0------------|
Db--------------------------------------------------------|

Db---------4-------------4-------------4-------------0----|
Ab--------0-------------0-------------0-------------0-----|
Gb-----------0-------------0-------------0-------------0--|
Db------4-------------4-------------4-------------4-------|
Ab---------------0---------------------------0------------|
Db-0---------------------------0----------------(repeat)--|



Db---------0-------------0-------------0-------------0----|
Ab--------4-------------5-------------7-------------9-----|
Gb-----------0-------------0-------------0-------------0--|
Db------2-------------4-------------5-------------7-------|
Ab-0-------------0-------------0-------------0------------|
Db--------------------------------------------------------|

Db---------4-------------9-------------4-------------9----|
Ab--------0-------------0-------------0-------------0-----|
Gb-----------0-------------0-------------0-------------0--|
Db------4-------------9-------------4-------------9-------|
Ab--------------------------------------------------------|
Db-0-------------0-------------0-------------0------------|


bridge

Db-10--------10------7----------7-------------------------|
Ab-0--------0--------0--------0---------------------------|
Gb-10-----10---------7------7-----------------------------|
Db-------------0-----------------0------------------------|
Ab-------0-----------------0------------------------------|
Db-0-----------------0------------------------------------|

Db-7----------7------4----------4-------------------------|
Ab-0--------0--------0--------0---------------------------|
Gb-6------6----------2------2-----------------------------|
Db-------------0-----------------0------------------------|
Ab-------0-----------------0------------------------------|
Db-0-----------------0------------------------------------|

Db-5----------5------2----------2-------------------------|
Ab-0--------0--------0--------0---------------------------|
Gb-4------4----------0------0-----------------------------|
Db-------------0-----------------0------------------------|
Ab-------0-----------------0------------------------------|
Db-0-----------------0------------------------------------|

Db-2----------2------0----------0-------------------------|
Ab-3--------3--------0--------0---------------------------|
Gb-0------0----------0------0-----------------------------|
Db-------0-----0-----------------0------------------------|
Ab-------------------------0------------------------------|
Db-5-----------------0------------------------------------|

Db-4----------0------4----------0-------------------------|
Ab-0--------0--------0--------0---------------------------|
Gb-2------0----------2------0-----------------------------|
Db-------------0-----------------0------------------------|
Ab-------0-----------------0------------------------------|
Db-0-----------------0------------------------------------|

Db-4----------0------4----------0-------------------------|
Ab-0--------0--------0--------0---------------------------|
Gb-2------0----------2------0-----------------------------|
Db-------------0-----------------0------------------------|
Ab-------0-----------------0------------------------------|
Db-0-----------------0------------------------------------|

Db-10----------------9------------------------------------|
Ab-0---------0-------0---------0--------------------------|
Gb-0-------0---------0-------0----------------------------|
Db-------0-----0-----------0-----0------------------------|
Ab--------------------------------------------------------|
Db-10----------------9------------------------------------|

Db-5-----------------4------------------------------------|
Ab-0---------0-------0---------0--------------------------|
Gb-0-------0---------0-------0----------------------------|
Db-------0-----0-----------0-----0------------------------|
Ab--------------------------------------------------------|
Db-5-----------------4------------------------------------|

Db-----------0-----------------0--------------------------|
Ab---------2-----------------2----------------------------|
Gb-------------0-----------------0------------------------|
Db-------0-----------------0------------------------------|
Ab-------------------2------------------------------------|
Db-2------------------------------------------------------|

Db-----------0--------------------------------------------|
Ab---------2---------2--------5---------------------------|
Gb-------------0-----0--------0---------------------------|
Db-------0-----------------0------------------------------|
Ab--------------------------------------------------------|
Db-2-----------------2--------4---------------------------|

Db--------------------------------------------------------|
Ab-7---------7-------9---------0--------------------------|
Gb-0-------0---------0-------0----------------------------|
Db-------0-----0-----------0-----0------------------------|
Ab--------------------------------------------------------|
Db-5-----------------7------------------------------------|

Db-----------0-----------------0--------------------------|
Ab---------2-----------------2----------------------------|
Gb-------------0-----------------0------------------------|
Db-------0-----------------0------------------------------|
Ab-------------------2------------------------------------|
Db-2------------------------------------------------------|

Db-----------0--------------------------------------------|
Ab---------2---------2--------5---------------------------|
Gb-------------0-----0--------0---------------------------|
Db-------0-----------------0------------------------------|
Ab--------------------------------------------------------|
Db-2-----------------2--------4---------------------------|

Db---------------------------------------------------------|
Ab-7---------7-------9---------9-------10---9--------------|
Gb-0-------0---------0-------0---------0----0--------------|
Db-------0-----0-----------0-----0-------------------------|
Ab---------------------------------------------------------|
Db-5-----------------7-----------------9----7--------------|

Db--------------------------------------------------------|
Ab-7---------7-------7---------7--------------------------|
Gb-0-------0---------0-------0----------------------------|
Db-------0-----0-----------0-----0------------------------|
Ab--------------------------------------------------------|
Db-5-----------------5------------------------------------|

Db----------------------------------------------------------|
Ab-0---------0-------0---------0----------------------------|
Gb-0-------0---------0-------0------------------------------|
Db-------0-----0-----------0-----0--------------------------|(first time go back to
Ab----------------------------------------------------------|main part, second time
Db-5-----------------5------------------straight to outro)--|


Outro

Db----------0--------4------------------------------------|
Ab-0--------------------------0---------------------------|
Gb-------------0-----------------0------------------------|
Db-------0-----------------0------------------------------|
Ab-0h2----------------------------------------------------|
Db-------------------0------------------------------------|

Db----------0--------4------------------------------------|
Ab-0--------------------------0---------------------------|
Gb-------------0-----------------0------------------------|
Db-------0-----------------0------------------------------|
Ab-0h2----------------------------------------------------|
Db-------------------0------------------------------------|

Db-9-------12--------5p0----------------7---9---0---------|
Ab----------------------------0---------------------------|
Gb-------0-----0-----------------0------------------------|
Db-------------------------0------------------------------|
Ab-10----------------7------------------9-----------------|
Db--------------------------------------------------------|

Db---------------7----------------------------------------|
Ab----------5-----------------5---------------------------|
Gb-4----------4-------------------------------------------|
Db-------0-----------------0-----0------------------------|
Ab--------------------------------------------------------|
Db-5-----------------5------------------------------------|

Db----------0-----------------0-----------------0---------|
Ab----------------------------------------------------0---|
Gb-0h2---------0-----4-----------4----0h2----------0------|
Db-------0-----------------0----------------0-------------|
Ab--------------------------------------------------------|
Db-0-----------------5----------------0-------------------|


Outro verse (repeat)

Db-----------------0----------------0---------------------|
Ab----------0-----------------0---------------------------|
Gb-------------0-----------------0------------------------|
Db-------0-----------------0------------------------------|
Ab-2------------------------------------------------------|
Db-------------------0------------------------------------|

Db-----------------0--------------------------------------|
Ab----------0-----------------0---------------------------|
Gb-------------0-----------------0------------------------|
Db-------0-----------------0------------------------------|
Ab-2------------------------------------------------------|
Db-------------------0------------------------------------|

Db-9-----------------5------------------------------------|
Ab----------0-----------------0---------------------------|
Gb-------------0-----------------0------------------------|
Db-------0-----------------0------------------------------|
Ab-10----------------7------------------------------------|
Db--------------------------------------------------------|

Db-7-----------------7---5---4----------------------------|
Ab----------0---------------------------------------------|
Gb-------------0------------------------------------------|
Db-------0------------------------------------------------|
Ab-9-----------------9---7---5----------------------------|
Db--------------------------------------------------------|

Db----------0-----------------0---------------------------|
Ab--------------------------------------------------------|
Gb-4-----------4-----2-----------0------------------------|
Db-------0-----------------0------------------------------|
Ab--------------------------------------------------------|
Db-5-----------------0------------------------------------|

Db----------0-----------------0---------------------------|
Ab--------------------------------------------------------|
Gb-4-----------4-----2-----------0------------------------|
Db-------0-----------------0------------------------------|
Ab--------------------------------------------------------|
Db-5-----------------0------------------------------------|

Db-9-----------------5------------------------------------|
Ab----------0-----------------0---------------------------|
Gb-------------0-----------------0------------------------|
Db-------0-----------------0------------------------------|
Ab-10----------------7------------------------------------|
Db--------------------------------------------------------|

Db-7-----------------7---5---4----------------------------|
Ab----------0---------------------------------------------|
Gb-------------0------------------------------------------|
Db-------0------------------------------------------------|
Ab-9-----------------9---7---5----------------------------|
Db--------------------------------------------------------|

Db----------0-----------------0---------------------------|
Ab--------------------------------------------------------|
Gb-4-----------4-----2-----------0------------------------|
Db-------0-----------------0------------------------------|
Ab--------------------------------------------------------|
Db-5-----------------0------------------------------------|

Db----------0-----------------0---------------------------|
Ab--------------------------------------------------------|
Gb-4-----------4-----0h2---------0------------------------|
Db-------0-----------------0------------------------------|
Ab--------------------------------------------------------|
Db-5-----------------0------------------------------------|

Db-9-------12--------5p0----------------7---9---0---------|
Ab----------------------------0---------------------------|
Gb-------0------0----------------0------------------------|
Db-------------------------0------------------------------|
Ab-10----------------7------------------9-----------------|
Db--------------------------------------------------------|

Db---------------7----------------------------------------|
Ab----------5-----------------5---------------------------|
Gb-4----------4-------------------------------------------|
Db-------0-----------------0-----0------------------------|
Ab--------------------------------------------------------|
Db-5-----------------5------------------------------------|

Db----------0-----------------0-----------------0---------|
Ab----------------------------------------------------0---|
Gb-0h2---------0-----4-----------4----0h2----------0------|
Db-------0-----------------0----------------0-------------|
Ab--------------------------------------------------------|
Db-0-----------------5----------------0-------------------|

Last time
Db----------0-----------0-----0---------------------------|
Ab----------------------------0---------------------------|
Gb-0h2---------0-----4-----4--2---------------------------|
Db-------0--------------------0---------------------------|
Ab----------------------------0---------------------------|
Db-0-----------------5--------0---------------------------|
comments
We did not receive enough feedback on this tab! Please rate:
print report bad tab
1 2 3 4 5
I want to post or [tab]
guest
You may want to rate the tab now too:
select rating
Please do not post tabs as comments. Select "correction" instead!