Oops, an error
Loading. Please wait.

Been Already A Year Tab

ver1
ver1

Whole song

Interactive

More versions @911Tabs.com
10,346 views 18 this week
no commentswrite comment
1 2 3 4 5
excellent!
x 3
Autoscroll
+/-
esc
set tempo
stop
Contributor
Hey! There's an official Ultimate Guitar app which is ideal
for learning songs when you're away from computer. Get the app
WARNING: You are trying to view
                                    content from Ultimate-Guitar.com
                                    in an unauthorized application,
                                    which is prohibited.

                                    Please use an official Ultimate
                                    Guitar Tabs application for iPhone,
                                    iPad or Android to access legitimate
                                    chords, guitar, bass, and drum tabs
                                    from Ultimate-Guitar.com database.

                                    Type "ultimate guitar tabs" in Apple
                                    App Store's or Android Market's
                                    search to find the application.
--------------------------------------------------------------------
                 Been Already A Year - Sungha Jung
--------------------------------------------------------------------

Tabbed by: Karpassieni
Tuning: Standard
Capo on 1st fred

   E  E   E   E  E   E  S  S   E   E  E  E  E  E  E   S  S  E
e|---------------3---2-----------|-----------------------------|
B|-----------s3---------3-s5---3-|-------------1--3---3-s5--3--|
G|--------0----------------------|-------0---------------------|
D|----2--------------------------|----0------------------------|
A|-3-----------------------------|-2--------2------------------|
E|-------------------------------|-----------------------------|

   E  E  E  Q      E   E    E      Q      E  Q       E  E   E
e|-------------------------------|----------------------------|
B|-----------------0--h1----0----|----------------------0-----|
G|-------0--2---------------0----|-------------------0--0-----|
D|----2-----0--------------------|--------0--2----------0---2-|
A|-3-----------------------------|-----------3----------------|
E|----------2--------------------|-3--------------------------|

   E  E  E  E  E  E  S  S   E      E  E  E  E  E  E  S  S  E
e|-------------3--5--5-s7---5----|----------5-----7--7-s8--7--|
B|----------3--------------------|-------8--------------------|
G|-------0-----------------------|----0-----------------------|
D|----2--------------------------|----------------------------|
A|-3-----------------------------|----------------------------|
E|-------------------------------|-7-----------7--------------|
 
   E  E  E   E  E  E  S  S   E     E  E  E  Q.          E  E
e|-----------------3--3-s5---3---|----------3-----------------|
B|-------8--s3-------------------|----------0-----------------|
G|----0--------------------------|-------2-----------------0--|
D|-------------------------------|----0-----------------2-----|
A|--------------0----------------|----------------------------|
E|-7-----------------------------|-3--------------------------|

     E   E   E   E   E   E  E  E   E  E   E   E   E  E   E  E
e|------------------------------|----------------------------|
B|--0---1---0---1---0---------0-|----1---0---1---0------0--0-|
G|--0---0---0---0---0---2-------|--------0----------0---0--0-|
D|------------------------------|-----------------------0--0-|
A|----------x--------------x----|-2------x-------2------x----|
E|----------x-------0------x----|--------x--------------x----|

   E  E  E  E   S   E  S   E   E   E  E   E  S  S  E  E  E  E
e|-------------------------------|----------------------------|
B|----1-----1---1--h3--1-------0-|----0---1--1-h3--------0----|
G|----0----------------0---------|-2------0-----------2--0--0-|
D|-------------------------------|----------------------------|
A|-3-----x------3----------x-----|-2------x--------2-----x----|
E|-------x-----------------x-----|--------x--------------x----|

   E   E   E   E  E  E   E    E    E  E   E   Q       E  E  E
e|-------------------------------|--------0-------------------|
B|---------0-------------0----3--|--------3--------------3--1-|
G|---------0---2-----2---0-------|----0-------0----------0----|
D|-----2----------0--------------|------------0-------0--2----|
A|-0-------x-------------x-------|-2------x--------------x----|
E|---------x-------------x-------|--------x---0----------x----|

   E  E  E   E  E   E    E    E    E  S  S  E  Q      E  E  E
e|-------------------------------|----------------------------|
B|----0-------------0----1----0--|-----------------------0----|
G|----0------2-----------0-------|----2-p0---------------0----|
D|--------------0----------------|--------------------0-----2-|
A|-0-----x---------------x-------|----------x------------x----|
E|-------x---------------x-------|-3--------x--3---------x----|

     E   E   E   E   E   E  E  E   E  E   E   E   E  E   E  E
e|------------------------------|----------------------------|
B|--0---1---0---1---0---------0-|----1---0---1---0------0--0-|
G|--0---0---0---0---0---2-------|--------0----------0---0--0-|
D|------------------------------|-----------------------0--0-|
A|----------x--------------x----|-2------x-------2------x----|
E|----------x-------0------x----|--------x--------------x----|

   E  E  E  E   S   E  S   E   E   E  E   E  S  S  E  E  E  E
e|-------------------------------|----------------------------|
B|----1-----1---1--h3--1-------0-|----0---1--1-h3--------0----|
G|----0----------------0---------|-2------0-----------2--0--0-|
D|-------------------------------|----------------------------|
A|-3-----x------3----------x-----|-2------x--------2-----x----|
E|-------x-----------------x-----|--------x--------------x----|

   E   E   E   E  E  E   E    E    E  E   E   Q       E  E  E
e|-------------------------------|--------0-------------------|
B|---------0-------------0----3--|--------3--------------3--1-|
G|---------0---2-----2---0-------|----0-------0----------0----|
D|-----2----------0--------------|------------0-------0--2----|
A|-0-------x-------------x-------|-2------x--------------x----|
E|---------x-------------x-------|--------x---0----------x----|

   E  E  E   E  E   E    E    E    E  S  S  E  Q      E  Q
e|-------------------------------|----------------------------|
B|----0-------------0----1----0--|-----------------------0----|
G|----0------2-----------0-------|----2-p0---------------0----|
D|--------------0----------------|--------------------0-------|
A|-0-----x---------------x-------|----------x-----------------|
E|-------x---------------x-------|-3--------x--3--------------|

   E   E   E   E   E   E   E  E    E   E  E  E   E   E  E   E
e|-2-------3------------------0--|-3---2---------0------------|
B|-0-------------------0---------|-0-----------------0--------|
G|---------------------0---------|----------------------------|
D|-------------------------------|----------------------------|
A|-x---2-----------x-------------|-x------2--2---x------2---2-|
E|-x-------0---0---x-------0-----|-x-------------x------------|

   E   E   E   E   E   E   E   E   E   E   E   E   E   E   Q
e|---------------------0---------|-------------0--------------|
B|-----------------1-----------3-|-1---3-------0-----------0--|
G|-0---2---0---0---0-----------0-|-0---0-------------------0--|
D|-0-------2---2-----------------|----------------------------|
A|-x-------3-------x-------3-----|-x---------------x----------|
E|-x---------------x-------------|-x-------3-------x---3------|

   E   E   E   E   E   E   E   E   E  S S   E  E  E  S  S  E E
e|-2-------3-------------------0-|-2--3s5------5--5--2-p0------|
B|-0-------------------0---------|-0--------------0--------3---|
G|---------------------0---------|-----------------------------|
D|-------------------------------|----------0----------------0-|
A|-x---2-----------x-------------|-x--------------x------------|
E|-x-------0---0---x-------0-----|-x--------------x------------|

   E   E   E   E   E   E   E   E   E   E   E   E   E   E   E   E
e|-0---0-----------3---2-------2-|-3---3-------------------------|
B|-0---0-----------0-------------|-0---0-------1---0---1---0-----|
G|-------------0-----------------|-------------0---0---0---0---2-|
D|-------------------------0-----|-------------------------------|
A|-x-------3-------x-------------|-x---------------x-------------|
E|-x---------------x-------------|-x-------0-------x-------------|

   E   E   E   E   E   E   E   E   E   E   E   E   E  E  S E   S
e|-------------------------------|-------------------------------|
B|-----0-------1---0---1---0-----|-0---0-------1---0--1--1h3-.-1-|
G|-----------------0-----------0-|-0---0-------0---0-----------0-|
D|-------------------------------|-0---0-------------------------|
A|-x-------2-------x-------2-----|-x-------0-------x-----3-------|
E|-x---------------x-------------|-x---------------x-------------|

   E   E   E   E   E   S S  E  E   E   E   E   E   E   E   E   E
e|-------------------------------|-------------------------------|
B|-----0-------0---1---1h3-------|-0---------------0-----------0-|
G|---------2-------0-----------2-|-0---0-----------0---2---------|
D|-------------------------------|-------------2-----------0-----|
A|-x-------2-------x--------2----|-x-------0-------x-------------|
E|-x---------------x-------------|-x---------------x-------------|

   E   E   E   E   E   Q       E   E   E   E   E   E   E   E   E
e|-----------------0-------------|-------------------------------|
B|-1---3-----------3-------------|-3---1-------0---------------0-|
G|-0-----------0-------0---------|-0-----------0-------2---------|
D|---------------------0-------0-|-2-----------------------0-----|
A|-x-------2-------x-------------|-x-------0-------x-------------|
E|-x---------------x---0---------|-x---------------x-------------|

   E   E   E   S S   E   E   Q     E   E   E   E   E   E   E   E
e|-------------------------------|-2-------3-------------------0-|
B|-1---0---------------------0---|-0-------------------0---------|
G|-0-----------2p0-----------0---|---------------------0---------|
D|-------------------------------|-------------------------------|
A|-x-----------------x-----------|-x---2-----------x-------------|
E|-x-------3---------x---3-------|-x-------0---0---x-------0-----|

   E   E   E   E   E   E   E   E   E   E   E   E   E   E   E   E
e|-3---2-----------0-------------|---------------------0---------|
B|-0-------------------0---------|-----------------1-----------3-|
G|-------------------------------|-0---2---0---0---0-----------0-|
D|-------------------------------|-0-------2---2-----------------|
A|-x-------2---2---x-------2---2-|-x-------3-------x-------3-----|
E|-x---------------x-------------|-x---------------x-------------|

   E   E   E   E   E   E   Q       E   E   E   E   E   E   E   E
e|-------------0-----------------|-2-------3-------------------0-|
B|-1---3-------0-----------0-----|-0-------------------0---------|
G|-0---0-------------------0-----|---------------------0---------|
D|-------------------------------|-------------------------------|
A|-x---------------x-------------|-x---2-----------x-------------|
E|-x-------3-------x---3---------|-x-------0---0---x-------0-----|

   E   S S  E  E   E  S S   E  E   E   E   E   E   E   E   E   E
e|-2---3s5-----5---5--2p0--------|-0---0-----------3---2-------2-|
B|-0---------------0--------3----|-0---0-----------0-------------|
G|-------------------------------|-------------0-----------------|
D|----------0------------------0-|-------------------------0-----|
A|-x---------------x-------------|-x-------3-------x-------------|
E|-x---------------x-------------|-x---------------x-------------|

                           v                                   v
   E   E   E   E   E   Q   E       E   E   E   E   E   Q       E       
e|-3---3-----------3-------3-----|-3---------------3-----------3-|
B|-0---0-----------3-------3-----|-3---------------3-----------3-|
G|-----------------0-------0-----|-0---------------0-----------0-|
D|-------------2-----------0-----|-------------2---------------0-|
A|-x-------3-------x---3---------|-x---3---3-------x---3---------|
E|-x---------------x-------------|-x---------------x-------------|

   E  S  S   E   E   E   Q     E   E   E   E   E   E   Q       E
e|-3-----------------0-----------|-0---------------0---2---------|
B|-3--0------3-------3---------3-|-------------3---3---3---------|
G|-0-----0---0-----------------0-|-------------0---------------0-|
D|-------------------------------|-----0---0-----------0-------0-|
A|-x-----------------x-----------|-x---------------x-------------|
E|-x---------3---3---x---3-------|-x---------------x-------------|

   E   E  E   E  S S S S S S  S S  S S T T S S S S S S S S S S S S S
e|-2---0-------------------------|-----------------------------------|
B|-3---3-------------------------|-------------------0-----0-0s3-3-0-|
G|-------------------------------|---------0h2p0 0h2---0h2-----------|
D|------------2------------------|---0h2h4---------------------------|
A|-x------3------------0h3s2--0h2|h3---------------------------------|
E|-x-------------0h2h3-----------|-----------------------------------|

   S S   E   E   E   E   S S   E   E   S E.    E   E   S E.     E
e|---------------0---------------|-0-----------0---------------------|
B|-0-------------3---------------|-0---2s3---------------------------|
G|---0-------0-------0---3s2---0-|---------------------2s4------0----|
D|-----------0-------------------|------------------------------0----|
A|---------------x---------------|-x---------------x-----------------|
E|-------2-------x---------------|-x---------------x-----------------|

   E   E   E   E   E   E   E   E   E   E  E   E   E   E   E   E
e|---------0---0-----------0---2-|-----3-----------------------------|
B|-----3---------------3---------|------------0-------0--------------|
G|-0-----------------------------|----------------2-----------0------|
D|-0-----------------------------|----------------0-----------0------|
A|-x-------0-------x-------0-----|-x------2-------x-------2----------|
E|-x---------------x-------------|-x--------------x------------------|

   E   E   E   E   E   E   E   E   E   E   E   E   E   E   E   E
e|-----------------------------0-|-----2-----------------------------|
B|-----3-------3-------3---------|-------------0-------0-------------|
G|-----2-------2-------2---------|-------------0---2---0-------0-----|
D|---------0---------------0-----|-----------------0-----------0-----|
A|-x---------------x-------------|-x---------------x-----------------|
E|-x---------------x-------------|-x-------0-------x-------0---------|

   E   E   E   E   E   E   E   E   E   E   E   E   E   S   S   E   E
e|---------0---0-------0---0---2-|-----3-----------------------------|
B|---------0---0-------0---0-----|-------------1---0---1--h3-------1-|
G|-0---0-------------------------|-------------0---0---0-----------0-|
D|-0---2---0---------------------|-----------------------------------|
A|-x---------------x-------3-----|-x-------0-------x-----------0-----|
E|-x---------------x-------------|-x---------------x-----------------|

   E   E   E   E   E   E   E   E   E   Q   E   E   E.  E   S
e|---------2---2---2---2-------3-|s5---5---5---5-----------7-|
B|-1---0---3---3---3---3-------3-|-----3---3---3---3---------|
G|-0---0-------------------------|-----------------0---------|
D|---------0---------------0-----|-----0---------------0-----|
A|-x---------------x-------------|-x-----------x-------------|
E|-x---------------x-------------|-x-----------x-------------|

   E   E   E   E   E   Q      E    Q  S S S  S S S S S S S S S
e|----s8---7------------------7--|----8p7----7-----------------|
B|---------------------0---------|-0------10---8p7---7---------|
G|-----------------9-------------|-----------------9---9p7---7-|
D|-------------0-----------------|-------------------------9---|
A|-------------------------------|-----------------------------|
E|---------8---------------------|-----------------------------|

   E   E   E   E   E   E   E   E
e|-----2---3-------------------0-|
B|-0---------------0---0---------|
G|-----------------0---0---------|
D|-------------------------------|
A|-----------------x-------------|
E|---------0---0---x-------0-----|

   E   E   E   E   E   E   E   E   E   E   E   E   E   E   E   E
e|-3---2-----------0-------------|---------------------0---------|
B|-0-------------------0---------|-----------------1-----------3-|
G|-------------------------------|-0---2---0---0---0-----------0-|
D|-------------------------------|-0-------2---2-----------------|
A|-x-------2---2---x-------2---2-|-x-------3-------x-------3-----|
E|-x---------------x-------------|-x---------------x-------------|

   E   E   E   E   E   E   Q       E   E   E   E   E   E   E   E
e|-------------0-----------------|-2-------3-------------------0-|
B|-1---3-------0-----------0-----|-0-------------------0---------|
G|-0---0-------------------0-----|---------------------0---------|
D|-------------------------------|-------------------------------|
A|-x---------------x-------------|-x---2-----------x-------------|
E|-x-------3-------x---3---------|-x-------0---0---x-------0-----|

   E   S S  E  E   E  S S   E  E   E   E   E   E   E   E   E   E
e|-2---3s5-----5---5--2p0--------|-0---0-----------3---2-------2-|
B|-0---------------0--------3----|-0---0-----------0-------------|
G|-------------------------------|-------------0-----------------|
D|----------0------------------0-|-------------------------0-----|
A|-x---------------x-------------|-x-------3-------x-------------|
E|-x---------------x-------------|-x---------------x-------------|

   E   E   E   E   E   E   E   E   E   E   E   E   E   E   E   E
e|-3---------------0-----------0-|-3---2-----------0-------------|
B|-0---------------0---0---------|-0-------------------0---------|
G|---------0---0-------0---------|-------------------------------|
D|---------0---0-----------------|-------------------------------|
A|-x---------------x-------------|-x-------2---2---x-------2---2-|
E|-x---0-----------x-------0-----|-x---------------x-------------|

   E   E   E   E   E   E   E   E   E   E   E   E   E   E   Q
e|---------------------0---------|-------------0-----------------|
B|-----------------1-----------3-|-1---3-------0-----------0-----|
G|-0---2---0---0---0-----------0-|-0---0-------------------0-----|
D|-0-------2---2-----------------|-------------------------------|
A|-x-------3-------x-------3-----|-x---------------x-------------|
E|-x---------------x-------------|-x-------3-------x---3---------|

   E   E   E   E   E   E   E   E   E   S   S   E   E   E    E E E
e|-2-------3-------------------0-|-2---3--s5-------5-------5b---3--|
B|-0-------------------0---------|-0-------------------0--------0--|
G|---------------------0---------|---------------------0-----------|
D|-------------------------------|-------------0-------------------|
A|-x---2-----------x-------------|-x-------------------x-----------|
E|-x-------0---0---x-------0-----|-x-------------------x-----------|

   E   S   S   E  E   E   E  E  E   E   E   E   E   E   Q       E
e|-----7--s7-----------------2----|-3---3-------3---3-----------3--|
B|--------------------0------0----|-0-----------0---0-----------3--|
G|--------------------0---0-------|--------------------------------|
D|------------------------0--0--0-|--------------------------------|
A|-x--------------2---x-----------|-x---------------x---3----------|
E|-x------------------x-----------|-x-------0-------x--------------|

   E   E   E   E   E   Q        E   E   S  S  E   E   E   Q      E
e|-3---------------3---3--------3-|-3-----------------0------------|
B|-3---------------3---3--------3-|-3---0-----3-------3----------3-|
G|-------------0---0---0--------0-|-0------0--0------------------0-|
D|-------------2------------------|--------------------------------|
A|-x---0---3-------x--------------|-x-----------------x------------|
E|-x---------------x--------------|-x---------3---3---x---3--------|
  
   E   E   E   E   E   Q        E   E   E   E   E   E   S  S  E   E
e|-0---------------0---2----------|-----0---------------------3---5-|
B|-------------3---3---3----------|-3---3---------------0-h3--------|
G|-------------0----------------0-|-0---------------0---------------|
D|-----0---0-----------0--------0-|-0-----------2-------------------|
A|-x---------------x--------------|---------3-----------------------|
E|-x---------------x--------------|---------------------------------|

   S  S   E   E   E   E   E   E   E   S  S  E   E   E   E  E   E   E
e|-5-s7---5---------------5-------7-|-7-s8--7----------------------3-|
B|--------------------8-------------|-------------------8-s3---------|
G|----------------0-----------------|---------------0----------------|
D|----------------------------------|--------------------------0-----|
A|----------------------------------|--------------------------------|
E|------------7---------------7-----|-----------7--------------------|

   S   E   E   S.  E   E   E   E
               ^               ^
e|-3--s5-------3---------------3----|
B|-------------3---------------3----|
G|---------0---2-------2-------2----|
D|-----------------0-------0--------|
A|----------------------------------|
E|-------------3---------------3----|
comments
We did not receive enough feedback on this tab! Please rate:
print report bad tab
1 2 3 4 5
I want to post or [tab]
guest
You may want to rate the tab now too:
select rating
Please do not post tabs as comments. Select "correction" instead!