Oops, an error
Loading. Please wait.

Ebon Coast Tab

ver1
ver1

Whole song

Interactive

More versions @911Tabs.com
1,043 views 30 this week
no commentswrite comment
1 2 3 4 5
please rate
Autoscroll
+/-
esc
set tempo
stop
Contributor
Difficulty
advanced
Hey! There's an official Ultimate Guitar app which is ideal
for learning songs when you're away from computer. Get the app
WARNING: You are trying to view
                                    content from Ultimate-Guitar.com
                                    in an unauthorized application,
                                    which is prohibited.

                                    Please use an official Ultimate
                                    Guitar Tabs application for iPhone,
                                    iPad or Android to access legitimate
                                    chords, guitar, bass, and drum tabs
                                    from Ultimate-Guitar.com database.

                                    Type "ultimate guitar tabs" in Apple
                                    App Store's or Android Market's
                                    search to find the application.
HERE ARE THE FULL EBON COAST TABS (SUNGHA'S VERSION)
OPENED WITH GUITAR PRO 6 & CONVERTED TO TEXT!
Credits to YUJI1812 for transcribing.

Title: Ebon Coast
Artist: Sungha Jung
Music: yuji812
Tempo = 78
Track 1

Legend
L - tied note
x - dead note
h - hammer on/pull off
b - bend
s - slide
~ - vibrato
g - ghost note
> - accentuated note
t - trill
M - palm mute
. - staccato
P - popping (bass)
S - slapping (bass)
+ - tapping
W - wide vibrato
< - fade in
w - whammy bar
= - tremolo picking
v - brush up
^ - brush down
V - pick stroke up
n - pick stroke down


E ||---------------------------------------------------|
B ||-------12----------12----------12----------12------|
G ||o------12----------12----------12----------12------|
D ||o---10-------x--10----10----10-------x--10----10---|
A ||-12----------x-----------12----------x-------------|
E ||---------------------------------------------------|


---------------------------------------------------|||
--------7-----------7-----------7-----------7------|||
--------7-----------7-----------7-----------7-----o|||
-----5--------x--5-----5-----5--------x--5-----5--o|||
--7-----------x-----------7-----------x------------|||
---------------------------------------------------|||


---------------------------------------------------|
-------7-----------7-----------7-----------7-------|
o------7-----------7-----------7-----------7-------|
o---5-----------5-----5-----5-----------5-----5----|
----------x-----------------------x----------------|
-0--------x--x-----------0--------x--x-------------|


---------------------------------------------------||
--------12----------12----------12----------12-----||
--------12----------12----------12----------12----o||
-----10----------10----10----10----------10----10-o||
--0--------x--------------0--------x---------------||
-----------x--x--------------------x--x------------||


----------------------------------------------------|
--------12----------12----------12----------12------|
--------12----------12----------12----------12------|
-----10----------10----10----10----------10----10---|
--0--------x--------------------------x-------------|
-----------x--x-----------11----------x-------------|


--------------------------------------------------------------------------2-----|
--------------------3-----------1-----------0-----------------3-----5-----------|
--------------2s-4--------------------------------------2s-4--------------------|
--------------------------------------------------------------------------------|
--------------------------x-----------x-----------------------------------x-----|
--0-----------------------x-----------x-----------0-----------------------x-----|


3-----5-------------|----------------------------------------------------|
------------3-------|--------3-----------3-----------5-----------5-------|
--------------------|-----5--5-----------5-----------7-----------7-------|
--------------------|-----5-----------------------7-----------------7----|
--------------------|--0-----------x--0-----0--------------x-------------|
--------------------|--------------x-----------7-----------x--7----------|


-----------7-----------------------------5--7-------|
--------5--------7-----8--------5--7--8--------8----|
-----7-----------------------7----------------------|
----------------------------------------------------|
--------------x-----x-----------------x-------------|
--0-----------x-----x-----0-----------x-------------|


--------7-----------7-------------------------------|
--------8-----------8-----------8-----------8-------|
--------9-----------9-----------11----------11------|
-----10----------10----0-----0-----0-----0-----0----|
--0-----------x-----------------------x-------------|
--------------x-----------10----------x-------------|


--------3h----2-----0-----------------------2-----------3h-2--------0-----------|
--------3-----------0-----------3-----------3-----------------3-----------------|
--------------------------------2-----------------------------------------------|
--------------------------------------------------------------------------------|
--------------------------x-----------x-----------------------------------x-----|
--0-----------------------x-----------x-----------0-----------------------x-----|


--------------------|
3-----------1-------|
2-----------2-------|
--------------------|
--------------------|
--------------------|


--------------------3-----------------------------------------------0-----------|
--------------1-----------------1-----------------------------3-----------------|
-----------2--------------------------------------------2-----------------------|
--------2-----------------------------------------0-----------------------------|
--0-----------------------x-----------x-----0h-2--------------------------x-----|
--------------------------x-----------x-----------------------------------x-----|


--------------------|-----------------10-------------------7--8--10------|
3-------------------|--------5--7-----------10L10~7--8--10-0g-------8----|
--------------------|-----7--------------------------------0g------------|
------------0-------|----------------------------------------------------|
--------------------|--------------x-----x-----------------x-------------|
------0-------------|--0-----------x-----x-----0-----------x-------------|


--------7-----------7-------------------------------|
--------8-----------8-----------8-----------8-------|
--------9-----------9-----------11----------11------|
-----10----------10----0-----0-----0-----0-----0----|
--0-----------x-----------------------x-------------|
--------------x-----------10----------x-------------|


--7--------0----------------------------------------|
-----8-----------0h-8h-10----------0----------------|
--------7--------------------9--------0-------------|
--------------------------------10-------4----------|
--------------x-----------0-----------------5s-7----|
--8-----------x-------------------------------------|


--------------------------------------------------------------------------------|
--------------7-----------------------7-----------------------------7-----------|
--------------7-----------------------7-----------------------------7-----------|
--------5-----------------------------------5-----------------0-----------------|
--------------------------x-----------------------------0h-5g-------------x-----|
--0-----------------------x-----0-----------------0-----------------------x-----|


--------------------|-----------------0--------------------3-----10------|
------7-------------|-----------3--------3--------------5----------------|
------7-------------|--------0--------------0--------5-------------------|
0-----------0-------|-----4-----------------------0----------------------|
--------------------|--3-----------x-----------0-------------------------|
--------------------|--------------x-------------------------------------|


--5-------------------------------------------------|
--------8--7-----5--7-----------7-----------7-------|
--------------------------------8-----------8-------|
-----------------------------7-----------------7----|
--------------x-------------------------------------|
--7-----------x-----------7-----------x--7----------|


--7--------0----------------------------------------|
-----8-----------0h-8h-10----------0----------------|
--------7--------------------9--------0-------------|
--------------------------------10-------4----------|
--------------x-----------0-----------------5s-7----|
--8-----------x-------------------------------------|


--------------------------------------------------------------------------------|
--------------7-----------------------7-----------------------------7-----------|
--------------7-----------------------7-----------------------------7-----------|
--------5-----------------------------------5-----------------0-----------------|
--------------------------x-----------------------------0h-5g-------------x-----|
--0-----------------------x-----0-----------------0-----------------------x-----|


--------------------|-----------------0-----------------------3----------|
------7-------------|-----------3--------3--------------1--------1-------|
------7-------------|--------0--------------0--------4--------------0----|
0-----------0-------|-----2-----------------------2----------------------|
--------------------|--3-----------x-----------0-----------x-------------|
--------------------|--------------x-----------------------x-------------|


-----------------------------------------------0----|
-----------7-----8-----10----------8----------------|
--------8--------------------8-----------11---------|
-----7----------------------------------------------|
--------------x-----x-----6-----------9-------------|
--7-----------x-----x-------------------------------|


--------------------------------------------------------------------------2-----|
--------------------3-----------1-----------0-----------------3-----5-----------|
--------------2s-4--------------------------------------2s-4--------------------|
--------------------------------------------------------------------------------|
--------------------------x-----------x-----------------------------------x-----|
--0-----------------------x-----------x-----------0-----------------------x-----|


3-----5-------------|----------------------------------------------------|
------------3-------|--------3-----------3-----------5-----------5-------|
--------------------|-----5--5-----------5-----------7-----------7-------|
--------------------|-----5-----------------------7-----------------7----|
--------------------|--0-----------x--0-----0--------------x-------------|
--------------------|--------------x-----------7-----------x--7----------|


-----------7-----------------------------5--7-------|
--------5--------8h-7h-8--------5--7--8--------8----|
-----7-----------------------7----------------------|
----------------------------------------------------|
--------------x-----------------------x-------------|
--0-----------x-----------0-----------x-------------|


--------7-----------7-------------------------------|
--------8-----------8-----------8-----------8-------|
--------9-----------9-----------11----------11------|
-----10----------10----0-----0-----0-----0-----0----|
--0-----------x-----------------------x-------------|
--------------x-----------10----------x-------------|


--------3h----2-----0-----------------------2-----------3h-2--------0-----------|
--------3-----------0-----------3-----------3-----------------3-----------------|
--------------------------------2-----------------------------------------------|
--------------------------------------------------------------------------------|
--------------------------x-----------x-----------------------------------x-----|
--0-----------------------x-----------x-----------0-----------------------x-----|


--------------------|
3-----------1-------|
2-----------2-------|
--------------------|
--------------------|
--------------------|


--------------------3-----------------------------------------------0-----------|
--------------1-----------------1-----------------------------3-----------------|
-----------2--------------------------------------------2-----------------------|
--------2-----------------------------------------0-----------------------------|
--0-----------------------x-----------x-----0h-2--------------------------x-----|
--------------------------x-----------x-----------------------------------x-----|


--------------------|-----------------10-------------------7--8--7-------|
3-------------------|--------5--7-----------10L10~7--8--10-0g-------8----|
--------------------|-----7--------------------------------0g------------|
------------0-------|----------------------------------------------------|
--------------------|--------------x-----x-----------------x-------------|
------0-------------|--0-----------x-----x-----0-----------x-------------|


--------7-----------7-------------------------------|
--------8-----------8-----------8-----------8-------|
--------9-----------9-----------11----------11------|
-----10----------10----0-----0-----0-----0-----0----|
--0-----------x-----------------------x-------------|
--------------x-----------10----------x-------------|


--7--------0----------------------------------------|
-----8-----------0h-8h-10----------0----------------|
--------7--------------------9--------0-------------|
--------------------------------10-------4----------|
--------------x-----------0-----------------5s-7----|
--8-----------x-------------------------------------|


--------------------------------------------------------------------------------|
--------------7-----------------------7-----------------------------7-----------|
--------------7-----------------------7-----------------------------7-----------|
--------5-----------------------------------5-----------------0-----------------|
--------------------------x-----------------------------0h-5g-------------x-----|
--0-----------------------x-----0-----------------0-----------------------x-----|


--------------------|-----------------0--------------------3-----10------|
------7-------------|-----------3--------3--------------5----------------|
------7-------------|--------0--------------0--------5-------------------|
0-----------0-------|-----4-----------------------0----------------------|
--------------------|--3-----------x-----------0-------------------------|
--------------------|--------------x-------------------------------------|


--5-------------------------------------------------|
--------8--7-----5--7-----------7-----------7-------|
--------------------------------8-----------8-------|
-----------------------------7-----------------7----|
--------------x-------------------------------------|
--7-----------x-----------7-----------x--7----------|


--7--------0----------------------------------------|
-----8-----------0h-8h-10----------0----------------|
--------7--------------------9--------0-------------|
--------------------------------10-------4----------|
--------------x-----------0-----------------5s-7----|
--8-----------x-------------------------------------|


--------------------------------------------------------------------------------|
--------------7-----------------------7-----------------------------7-----------|
--------------7-----------------------7-----------------------------7-----------|
--------5-----------------------------------5-----------------0-----------------|
--------------------------x-----------------------------0h-5g-------------x-----|
--0-----------------------x-----0-----------------0-----------------------x-----|


--------------------|-----------------0-----------------------3----------|
------7-------------|-----------3--------3--------------1--------1-------|
------7-------------|--------0--------------0--------4--------------0----|
0-----------0-------|-----2-----------------------2----------------------|
--------------------|--3-----------x-----------0-----------x-------------|
--------------------|--------------x-----------------------x-------------|


-----------------------------------8----------------|
-----------7-----8-----10----------------10----12---|
--------8--------------------8-----------------12---|
-----7--------------------------xg------------------|
--------------x-----x-----6-----------9-------------|
--7-----------x-----x-------------------------------|


-----------------2h-------0-------------------------|
--------------------------------5h-0-----8h-0h-5----|
--------12----------------------4h-0-----------4----|
-----------------------------------------7----------|
--------------x-----------------------x-------------|
--12----------x-----------8-----------x-------------|


-----------------3h-2h-0----------------------------|
-----0--8h-0-----3--------------5h-0-----8h-0h-5----|
-----0--------------------------4h-0-----------4----|
--------7--------------------7-----------7----------|
--------------x-----------------------x-------------|
--8-----------x-----------8-----------x-------------|


-----------------5h-0h-7-----0-----------------10---|
-----0--8h-0-----5--0--8-----0--8h-0-----------10---|
-----0--------------------------7--0-----------9----|
--------7--------------------------------10-12------|
--------------------------------------x-------------|
--8-----------10----------12----------x-------------|


-----0-----------8--7--------------------3h-2h-0----|
-----0--8h-0-----8-----10----0--8h-0-----3L-3L-3----|
-----0--7h-0-----------------0----------------------|
-----------------7--------------7-------------------|
--------------x-----------------------x-------------|
--12----------x-----------8-----------x-------------|


-----0-----------------------0----------------------|
-----0--8h-0--8--------0-----0--5h-0-----8h-0h-5----|
-----0--7--0--7-----9--0--------4h-0--------9--4----|
-----------------------------------------7----------|
--10----------------------------------x-------------|
--------------------------8-----------x-------------|


-----0-----------------10----------------5h-0h-7----|
-----0--8h-0-----------10----0--8h-0-----5--0--8----|
--------7--0-----------9-----0----------------------|
-----------------10-12----------7-------------------|
--------------x-------------------------------------|
--12----------x-----------8-----------10------------|


-----0-----------------10----0-----------8--7-------|
-----0--8h-0-----------10----0--8h-0-----8-----10---|
--------7--0-----------9-----0--7h-0----------------|
-----------------10-12-------------------7----------|
--------------x-----------------------x-------------|
--12----------x-----------12----------x-------------|

                                      ^
-----0--------0-------------------------------------||
-----0--8h-0--0-------------------------------------||
--------7--0--0-----------------------12M-----------||
-----------------10-12s9g-------------12M-----------||
--------------------------------------12M-----------||
--12----------------------7-------------------------||


----------7-----5----------------------------------|
-------------------8--8-----------8-----5h-7--5----|
o------------------------------0-------------------|
o---------------------------7----------------------|
-------------x-----------------------x-------------|
-0--0--0-----x-----------7-----------x-------------|


--------------------------------------------0-----------------------------------|
--------------------0-----------------------------------------------0-----------|
--------------7-----------------7-----------------------------5-----------7-----|
--------7-----------------------------7-----------------5-----------------------|
--------------------------x-----------------------------------------------------|
--8-----------------------x-----------------------5-----------------------7-----|


------0-------------|-----------5s-7--10-------------------------10------|
--------------------|-----------------------0--------8--------8-----12---|
------------7s-9L---|--9~----0g----------------------7-------------------|
7-------------------|-----------------------------7----------------------|
--------------------|--------------------x-----------------x-------------|
--------------------|--0-----------------x-----7-----------x-------------|


--------------------------------------------------------------------------------|
--------------------------------------------------------------------------------|
--------------------12----------------------------------------12----11----------|
--------------------------------12----------12g------------12-------------------|
--------------10----------x-----------0-----------10----x-----------------------|
--8-----------------------x-----------------------------x-----------------------|


-------------------|||---------------------------------------------------|
------------0------|||-------12----------12----------12----------12------|
------------------o|||o------12----------12----------12----------12------|
12----------------o|||o---10-------x--10----10----10-------x--10----10---|
------0------------|||-12----------x-----------12----------x-------------|
-------------------|||---------------------------------------------------|


---------------------------------------------------|||
--------7-----------7-----------7-----------7------|||
--------7-----------7-----------7-----------7-----o|||
-----5--------x--5-----5-----5--------x--5-----5--o|||
--7-----------x-----------7-----------x------------|||
---------------------------------------------------|||


---------------------------------------------------|
-------7-----------7-----------7-----------7-------|
o------7-----------7-----------7-----------7-------|
o---5-----------5-----5-----5-----------5-----5----|
----------x-----------------------x----------------|
-0--------x--x-----------0--------x--x-------------|


---------------------------------------------------||
--------12----------12----------12----------12-----||
--------12----------12----------12----------12----o||
-----10----------10----10----10----------10----10-o||
--0--------x--------------0--------x---------------||
-----------x--x--------------------x--x------------||


----------------------------------------------------|
--------12----------12----------12----------12------|
--------12----------12----------12----------12------|
-----10----------10----10----10----------10----10---|
--0--------x--------------------------x-------------|
-----------x--x-----------11----------x-------------|


--------------------------------------------------------------------------2-----|
--------------------3-----------1-----------0-----------------3-----5-----------|
--------------2s-4--------------------------------------2s-4--------------------|
--------------------------------------------------------------------------------|
--------------------------x-----------x-----------------------------------xg----|
--0-----------------------x-----------x-----------0-----------------------xg----|


3-----5-------------|----------------------------------------------------|
------------3-------|--------3-----------3-----------5-----------5-------|
--------------------|-----5--5-----------5-----------7-----------7-------|
--------------------|-----5-----------------------7-----------------7----|
--------------------|--0-----------x--0-----0--------------x-------------|
--------------------|--------------x-----------7-----------x--7----------|


-----------7-----------------------------5--7-------|
--------5--------7-----8--------5--7--8--------8----|
-----7-----------------------7----------------------|
----------------------------------------------------|
--------------x-----x-----------------x-------------|
--0-----------x-----x-----0-----------x-------------|


--------7-----------7-------------------------------|
--------8-----------8-----------8-----------8-------|
--------9-----------9-----------11----------11------|
-----10----------10----0-----0-----0-----0-----0----|
--0-----------x-----------------------x-------------|
--------------x-----------10----------x-------------|


--------3h----2-----0-----------------------2-----------3h-2--------0-----------|
--------3-----------0-----------3-----------3-----------------3-----------------|
--------------------------------2-----------------------------------------------|
--------------------------------------------------------------------------------|
--------------------------x-----------x-----------------------------------x-----|
--0-----------------------x-----------x-----------0-----------------------x-----|


--------------------|
3-----------1-------|
2-----------2-------|
--------------------|
--------------------|
--------------------|


--------------------3-----------------------------------------------0-----------|
--------------1-----------------1-----------------------------3-----------------|
-----------2--------------------------------------------2-----------------------|
--------2-----------------------------------------0-----------------------------|
--0-----------------------x-----------x-----0h-2--------------------------x-----|
--------------------------x-----------x-----------------------------------x-----|


--------------------|-----------------10-------------------7--8--10------|
3-------------------|--------5--7-----------10L10~7--8--10-0g-------8----|
--------------------|-----7--------------------------------0g------------|
------------0-------|----------------------------------------------------|
--------------------|--------------x-----x-----------------x-------------|
------0-------------|--0-----------x-----x-----0-----------x-------------|


--------7-----------7-------------------------------|
--------8-----------8-----------8-----------8-------|
--------9-----------9-----------11----------11------|
-----10----------10----0-----0-----0-----0-----0----|
--0-----------x-----------------------x-------------|
--------------x-----------10----------x-------------|


--7--------0----------------------------------------|
-----8-----------0h-8h-10----------0----------------|
--------7--------------------9--------0-------------|
--------------------------------10-------4----------|
--------------x-----------0-----------------5s-7----|
--8-----------x-------------------------------------|


--------------------------------------------------------------------------------|
--------------7-----------------------7-----------------------------7-----------|
--------------7-----------------------7-----------------------------7-----------|
--------5-----------------------------------5-----------------0-----------------|
--------------------------x-----------------------------0h-5g-------------x-----|
--0-----------------------x-----0-----------------0-----------------------x-----|


--------------------|-----------------0--------------------3-----10------|
------7-------------|-----------3--------3--------------5----------------|
------7-------------|--------0--------------0--------5-------------------|
0-----------0-------|-----4-----------------------0----------------------|
--------------------|--3-----------x-----------0-------------------------|
--------------------|--------------x-------------------------------------|


--5-------------------------------------------------|
--------8--7-----5--7-----------7-----------7-------|
--------------------------------8-----------8-------|
-----------------------------7-----------------7----|
--------------x-------------------------------------|
--7-----------x-----------7-----------x--7----------|


--7--------0----------------------------------------|
-----8-----------0h-8h-10----------0----------------|
--------7--------------------9--------0-------------|
--------------------------------10-------4----------|
--------------x-----------0-----------------5s-7----|
--8-----------x-------------------------------------|


--------------------------------------------------------------------------------|
--------------7-----------------------7-----------------------------7-----------|
--------------7-----------------------7-----------------------------7-----------|
--------5-----------------------------------5-----------------0-----------------|
--------------------------x-----------------------------0h-5g-------------x-----|
--0-----------------------x-----0-----------------0-----------------------x-----|


--------------------|-----------------0-----------------------3----------|
------7-------------|-----------3--------3--------------1--------1-------|
------7-------------|--------0--------------0--------4--------------0----|
0-----------0-------|-----2-----------------------2----------------------|
--------------------|--3-----------x-----------0-----------x-------------|
--------------------|--------------x-----------------------x-------------|


-----------------------------------8----------------|
-----------7-----8-----10----------------10----12---|
--------8--------------------8-----------------12---|
-----7--------------------------xg------------------|
--------------x-----x-----6-----------9-------------|
--7-----------x-----x-------------------------------|


-----------------2h-------0-------------------------|
--------------------------------5h-0-----8h-0h-5----|
--------12----------------------4h-0-----------4----|
-----------------------------------------7----------|
--------------x-----------------------x-------------|
--12----------x-----------8-----------x-------------|


-----------------3h-2h-0----------------------------|
-----0--8h-0-----3--------------5h-0-----8h-0h-5----|
-----0--------------------------4h-0-----------4----|
--------7--------------------7-----------7----------|
--------------x-----------------------x-------------|
--8-----------x-----------8-----------x-------------|


-----------------5h-0h-7-----0-----------------10---|
-----0--8h-0-----5--0--8-----0--8h-0-----------10---|
-----0--------------------------7--0-----------9----|
--------7--------------------------------10-12------|
--------------------------------------x-------------|
--8-----------10----------12----------x-------------|


-----0-----------8--7--------------------3h-2h-0----|
-----0--8h-0-----8-----10----0--8h-0-----3L-3L-3----|
-----0--7h-0-----------------0----------------------|
-----------------7--------------7-------------------|
--------------x-----------------------x-------------|
--12----------x-----------8-----------x-------------|


-----0-----------------------0----------------------|
-----0--8h-0--8--------0-----0--5h-0-----8h-0h-5----|
-----0--7--0--7-----9--0--------4h-0--------9--4----|
-----------------------------------------7----------|
--10----------------------------------x-------------|
--------------------------8-----------x-------------|


-----0-----------------10----------------5h-0h-7----|
-----0--8h-0-----------10----0--8h-0-----5--0--8----|
--------7--0-----------9-----0----------------------|
-----------------10-12----------7-------------------|
--------------x-------------------------------------|
--12----------x-----------8-----------10------------|


-----0-----------------10----0-----------8--7-------|
-----0--8h-0-----------10----0--8h-0-----8-----10---|
--------7--0-----------9-----0--7h-0----------------|
-----------------10-12-------------------7----------|
--------------x-----------------------x-------------|
--12----------x-----------12----------x-------------|

                                      ^
-----0--------0-------------------------------------||
-----0--8h-0--0-------------------------------------||
--------7--0--0-----------------------12M-----------||
-----------------10-12s9g-------------12M-----------||
--------------------------------------12M-----------||
--12----------------------7-------------------------||


----------------------------------------0----------|
----------8-----0g----------------0--7-------------|
o---------7-----0g-------------0--------------0----|
o---------------0g----------0--------------9-------|
-------------x-------------------------------------|
-0--0--0-----x-----0--5s-7-------------------------|


-----------10----0-----------3--------------3-------|
-----------8--------------3-----3--------3-----0----|
-----------------------5-----------5----------------|
--------------------5-----------------5-------------|
--------------x-------------------------------------|
--8--8--8-----x-------------------------------------|


-----------------------------------------0----------|
-----------8-----0g----------------0--7-------------|
-----------7-----0g-------------0--------------0----|
-----------------0g----------0--------------9-------|
--------------x-------------------------------------|
--0--0--0-----x-----0--5s-7-------------------------|


-----------7---------------------------------------||
-----------8-----0---------------------------------||
-----------9-----------------0-----------12-------o||
--------------------------0-----0--------12-------o||
--0--0--0-----x--------------------0--7------------||
--------------x-----0--8---------------------------||


-----------------------------------------0----------|
-----------8-----0g----------------0--7-------------|
-----------7-----0g-------------0--------------0----|
-----------------0g----------0--------------9-------|
--------------x-------------------------------------|
--0--0--0-----x-----0--5s-7-------------------------|


-----------10----0-----------3--------------3-------||
-----------8--------------3-----3--------3-----0----||
-----------------------5-----------5----------------||
--------------------5-----------------5-------------||
--------------x-------------------------------------||
--8--8--8-----x-------------------------------------||
comments
We did not receive enough feedback on this tab! Please rate:
print report bad tab
1 2 3 4 5
I want to post or [tab]
guest
You may want to rate the tab now too:
select rating
Please do not post tabs as comments. Select "correction" instead!