Oops, an error
Loading. Please wait.

I Love You Tab

ver1
ver1

Whole song

Interactive

More versions @911Tabs.com
4,142 views 18 this week
no commentswrite comment
1 2 3 4 5
excellent!
x 4
Autoscroll
+/-
esc
set tempo
stop
Contributor
WARNING: You are trying to view
                                    content from Ultimate-Guitar.com
                                    in an unauthorized application,
                                    which is prohibited.

                                    Please use an official Ultimate
                                    Guitar Tabs application for iPhone,
                                    iPad or Android to access legitimate
                                    chords, guitar, bass, and drum tabs
                                    from Ultimate-Guitar.com database.

                                    Type "ultimate guitar tabs" in Apple
                                    App Store's or Android Market's
                                    search to find the application.
Sungha Jung- I Love You
Original by: 2NE1
Tabbed by: yuji812


      Q    E  E  E  E  E   E     E  E  E  E  E   E  E  E   
E ||--------------------------|---------------------------|
B ||--------------------------|---------------------------|
G ||----------5--5------------|-----5--5--5--L\-----------|
D ||-------8--------8--8p--5--|--8------------------------|
D#||--------------------------|---------------------------|
C ||--0----------0------------|--0--------0------0-----0--|


  Q    E  E  E  E  E   E     E  E  E  E  E   E  E  E   
--------------------------|---------------------------|
--------------------------|---------------------------|
----------5--5------------|-----5--5--5--L\-----------|
-------8--------8--8p--5--|--8------------------------|
--------------------------|---------------------------|
--0----------0------------|--0--------0------0-----0--|


  Q    E  E  E  E   E   E     E  E   E  E  E  E  E  E   
-------6-------------------|---------------------------|
--8-------8-------------8--|--L--8p--6--6--------------|
--8---------------------8--|--L------------8-----------|
----------------8----------|------------------8-----8--|
--0----------0-----(x)--0--|--L------------------0-----|
-------------------(x)-----|---------------------------|


  Q    E  E  E  E   E   E     E  E   E  E  E  E  E  E   
-------6----------------8--|--L--8p--6--6--------------|
--8-------8----------------|---------------8-----------|
--8------------------------|------------------8--------|
----------------8----------|------------------8-----8--|
--0----------0-----(x)--0--|--L------------------0-----|
-------------------(x)-----|---------------------------|


  Q    E  E  E  E  E   E     E  E  E  E  E   E  E  E   
--------------------------|---------------------------|
--------------------------|---------------------------|
----------5--5------------|-----5--5--5--L\-----------|
-------8--------8--8p--5--|--8------------------------|
--------------------------|---------------------x-----|
--0----------0------------|--0--------0------0--x--0--|


  Q    E  E  E  E  E   E     E  E  E  E  E   E  E  E   
--------------------------|---------------------------|
--------------------------|---------------------------|
----------5--5------------|-----5--5--5--L\-----------|
-------8--------8--8p--5--|--8------------------------|
--------------------------|---------------------x-----|
--0----------0------------|--0--------0------0--x--0--|


  Q    E  E   E   E  E  E     E  E   E  E  E  E  E  E   
-------6-------------------|---------------------------|
--8-------8-------------8--|--L--8p--6--6--------------|
--8-------8-------------8--|--L------------8-----------|
------------------8--------|------------------8-----8--|
--0----------(0)-----x--0--|--L------------------0-----|
---------------------x-----|---------------------------|


  Q    E  E  E  E  E  E     E  E   E  E  E  E  E  E   
-------6--------------8--|--L--8p--6--6--------------|
--8-------8--------------|---------------8-----------|
--8-------8--------------|------------------8--------|
----------------8--------|------------------8-----8--|
--0----------0-----x--0--|--L------------------0-----|
-------------------x-----|---------------------------|


                                   |----3---|                    
  E  E  E  E  E  E  E  E     E.    S    S   S E.     Q    E  E   
--------------------------|------------------------6g8----------|
--------------------------|-------------------------------6-----|
--------------------------|-------------------------------------|
--------------------------|-------------------------------------|
--x-----x-----x-----x-----|--------x----x-----------------------|
--0-----0-----0-----0-----|--0---(12)-(12)-12-L\----------------|


  E  E  E  E    E  E  E  E     E  E  E  E     E  E  E  E   
--3-----------6g8--L--------|--3-----------8g10--------L--|
--4-------------------6-----|--4--------------------------|
--3-------------------------|--3--------------------------|
----------------------------|-----------------------------|
--------x-------------x-----|--------x--------------x-----|
--0--0--x--0-------0--x--0--|--0--0--x--0--------0--x--0--|


  E  E  E  E   E   E  E  E      E   E  E  E  E  E   E   E    
--8-------------------------|----------------8--------------|
--8------------8------------|--11------------------11-------|
--8-----------(8)-----------|--(8)------------------8-------|
----------------------------|--------------------------(0)--|
--------x-------------x-----|----------x------------x-------|
--0--0--x--0-------0--x--0--|---0---0--x--0-----0---x-------|


  E  E  E  E  E  E  E  E     E  E  E  E     E  E  E  E   
--------------6-----------|--------------8g10--------L--|
--8-----------------6-----|--8--------------------------|
--------------------8-----|--8--------------------------|
--------------------------|-----------------------------|
--0--0--x--0-----0--x--0--|--0--0--x--0--------0--x--0--|
--------x-----------x-----|--------x--------------x-----|


  E  E  E  E  E  E  E  E      E  E  E  E  E  E  E  E   
--8-----------------------|------------------6--------|
--8-----------8-----------|--11--------------8--------|
--------------8-----------|---8-----------------------|
--------------------------|------------8--------------|
--0--0--x--0--0--0--x--0--|---0--0--x--0--x-----x--0--|
--------x-----------x-----|---------x-----x-----x-----|


    S  S S S  E  S  S E  E  E  E     S S S S E  E  E  E   E   E   
|---------------------------------|------------------------------|
|---4h-6---4h-6--4h-6-------6--4--|--6-----6----6----------------|
|*--3------3-----3-------0--3-----|--3-----3----3-----3--(3)--0--|
|*--------------------------------|-------------------5--(5)-----|
|-------------x-------x-----x-----|----------x-----x------x------|
|---0----0----x--0----x-----x-----|--0---0---x-----x------x------|


  S  S S S  E  S  S E  E  E  E     S S S S E  E  E  E   E   E   
--------------------------------|------------------------------|
--4h-6---4h-6--4h-6-------6--4--|--6-----6----6-----6----------|
--3------3-----3-------0--3-----|--3-----3----3-----3--(3)-----|
--------------------------------|----------------------(5)--0--|
------------x-------x-----x-----|----------x-----x------x------|
--0----0----x--0----x-----x-----|--0---0---x-----x------x------|


  E  E  E  E  E  E  E    E     E   S  S S  S  S  S  E  E  E  E   
----------------------------|-----(6)-----(6)-------------------|
--8-------------------------|------8-------8--------8--6-----6--|
-----8-----8-----------7g8--|------8-------8----(8)-8--8--------|
-----8-----8-----8-------8--|-----------------------------------|
--0-----x-----0-----x----0--|-----------x-----------0-----x-----|
--------x-----x-----x-------|--x--------x-----------x-----x-----|


  E  E  E  E  E  E  E    E     E   S  S S  S  S  S  E  E  E  E     
----------------------------|-----(6)-----(6)--------------------||
--8-------------------------|------8-------8--------8------------||
-----8-----8-----------7g8--|------8-------8----(8)-8-----------*||
-----8-----8-----8-------8--|-----------------------------------*||
--0-----x-----0-----x----0--|-----------x-----------0--0--x--0---||
--------x-----x-----x-------|--x--------x-----------x-----x------||


  S S S S E  E  E  E   E   E     E  E  E  E  E  E  E    E   
------------------------------|----------------------------|
--6-----6----6-----6---6s--8--|--8-------------------------|
--3-----3----3-----3--(3)-----|-----8-----8-----------7g8--|
----------------------(5)-----|-----8-----8-----8-------8--|
----------x-----x------x------|--0-----x-----0-----x----0--|
--0---0---x-----x------x------|--------x-----x-----x-------|


  E   S  S S  S  S  S  E  E  E  E     E  E  E  E  E  E  E  S  S   
-----(6)-----(6)-------------------|-----------------------------|
------8-------8--------8--6--6--6--|--8--------------------8s-9s-|
------8-------8----(8)-8--8--8-----|-----8-----8-----------8-----|
-----------------------------------|-----8-----8-----8-----------|
-----------x-----------0-----x-----|--0-----x-----0-----x--0-----|
--x--------x-----------x-----x-----|--------x-----x-----x--------|


  E  E  E   S   S  E  E  E   S   S     E  E  E  E  E  E  E  E   
------------------------------------|--------3--3--3-----------|
--8-----8-------------8--8----------|--------4--------4--6-----|
-----8--8--(8)--------8--8----------|--------5-----------------|
-----8--8--(8)-(8)------------------|-----------------------0--|
--------x----------0-----x------(x)-|--5--5--x-----5-----x-----|
--------x----------------x--(x)-----|--------x-----x-----x-----|


  E  S S E  Q    E    E  E     E  S S E  E  E  E   E  S  S  
----------------------------|---------6--6-----------------|
--8-------------------------|---------6--6-----------------|
-------8---------8s--10-----|--7------7--------5h--7--7h-8-|
-------8--------------------|------------------------------|
---------x------------x--0--|--7--7-7-x-----x------x-------|
--0--0---x--0---------x-----|---------x-----x------x-------|


  E  E  E   S   S  E  E  E   E      E  E  E  E  E  E  E  E   
--------6----------6-----5-------|--4-----4--4--4-----------|
--------6----------6-----5-------|--4-----4--4--------6-----|
--7-----7----------------6-------|--5-----5--------5--5-----|
---------------------------------|--------------------------|
--7--7--x------(x)-7--7--x--(0)--|--5--5--x-----5-----x--0--|
--------x--(x)-----------x-------|--------x-----------x-----|


  E  S S E  E  E  E  E  E     E  E  E  E  E  E  E  S  S  
---------------------------|--------6-------------------|
--8---------------8--8-----|--6-----6-----9--8--6--8s-9-|
-------8----------8--8-----|--7-----7-----------7-------|
------------------------0--|----------------------------|
---------x-----x-----x-----|--7--7--x--7--7-----x--7----|
--0--0---x--0--x-----x-----|--------x-----------x-------|


  E  E  E  E  E  E  E  E     E  E  E  E  E  E  E  E   
--------------6-----6-----|--3-----3-----6--L--3-----|
--8--6--------6-----6-----|--4-----4-----------4-----|
-----7--------------7-----|--3-----3-----------------|
-----------------------0--|--------------------------|
--x-----x--7-----7--x-----|--------x-----------x-----|
--x-----x-----------x-----|--0--0--x--0-----0--x--0--|


  E  E  E  E     E  E  E  E     E  E  E  E   E   E  E  E   
--3-----------8g10--------L--|--8-------------------------|
--4--------------------------|--8------------8------------|
--3--------------------------|--8-----------(8)-----------|
-----------------------------|----------------------------|
--0--0--x--------------x-----|--------x-------------x-----|
--------x--0--------0--x--0--|--0--0--x--0-------0--x--0--|


   E   E  E  E  E  E   E   E      E  E  E  E  E  E  E  E   
----------------8--------------|--------------6-----------|
--11------------------11-------|--8-----------------8-----|
--(8)------------------8-------|--------------------8-----|
--------------------------(0)--|--------------------------|
----------x------------x-------|--0--0--x--0-----0--x--0--|
---0---0--x--0-----0---x-------|--------x-----------x-----|


    E  E  E  E     E  E  E  E     E  E  E  E  E  E  E  E   
----------------8g10--------L--|--8-----------------------|
--6g8--------------------------|--8-----------8-----------|
----8--------------------------|--------------8-----------|
-------------------------------|--------------------------|
----0--0--x--0--------0--x--0--|--0--0--x--0--0--0--x--0--|
----------x--------------x-----|--------x-----------x-----|


   E  E  E  E  E  E  E   S   S     E  S S E  E  E  E  E  E   
--------------------------------|--3----3-------------------|
--11--------------8-------------|--4----4----------4-----4--|
---8--------8-----8-------------|--3---------------3--------|
------------8-----8-------------|---------------------------|
---0--0--0-----x-----x------(x)-|---------x-----x-----x-----|
---------x-----x-----x--(x)-----|--0--0---x--0--x-----x-----|


  E  S S E  E  E  E  E  E     E  E  E  E  E  E   E   E   
---------------------------|--3--3-----3--3-------------|
------------------4--4-----|--4--4-----4-----4--(4)--4--|
--3---------3-----3--3--0--|--3-----------------(3)-----|
---------x--5--------------|----------------------------|
--x------x-----x-----x-----|--------x------------x------|
--0--0-0-------x-----x-----|--0-----x-----0------x------|


  E  S S E  E  E  E  E  E     E  E   E  E  S S S S E  E   
---------------------------|-----------------------------|
--6------------------------|--------------------------6--|
--3----3----------3--------|---------------7-----8----8--|
---------------x--5--------|--8-----10-----8-----8-------|
---------x-----x-----x--0--|--0--0---x--0--0---0---x--0--|
--0--0---x--0--------x-----|---------x-------------x-----|


  E  E  E  Q    E  E  E     E  E   E  E  S S S S E  E   
-------------------------|-----------------------------|
-----8-------------------|--------------------------6--|
-----8-------------------|---------------7-----8----8--|
----------------8--------|--8-----10-----8-----8-------|
--------x--0-------x--0--|--0--0---x--0--0---0---x--0--|
--x-----x----------x-----|---------x-------------x-----|


                             ^                         
  E  E  E  E  E  E  E  E     E  S S E  E  E  E  E  E   
--------------------------|--6----3-------------------|
-----8--------------8-----|--4----4----------4-----4--|
-----8-----------8--8-----|--3---------3-----3--------|
-----------------8--8-----|--5---------5--------------|
--------x--0--x-----x-----|---------x-----x-----x-----|
--x-----x-----x-----x--0--|--0--0---x-----x-----x-----|


                              ^                        
  E  S S E  E  E  E  E  E     E  E  E  E  E  E  E  E   
---------------------------|--6--3--3--3-----3--------|
--6---------------4--4-----|--4-----4-----6-----6--4--|
-------3----------3--3-----|--3-----------------3-----|
-------5-------x-----------|--5-----------------------|
---------x-----x-----x-----|--------x-----------x-----|
--0--0---x--0--------x--0--|--0-----x-----0-----x-----|


  E  S S E  E  E  E  E  E     E  E   E  E  S S S S E  E   
--6------------------------|-----------------------------|
---------------------------|--------------------------6--|
-------3----------3--3--3--|---------------7-----8----8--|
---------------x--5--5-----|--8-----10-----8-----8-------|
---------x-----x-----x-----|--0--0---x--0--0---0---x--0--|
--0--0---x--0--------x-----|---------x-------------x-----|


  E  E  E  Q    E  E  E     E  E   E  E  S S S S E  E   
-------------------------|-----------------------------|
-----8-------------------|--------------------------6--|
-----8-------------------|---------------7-----8----8--|
----------------8--------|--8-----10-----8-----8-------|
--------x--0-------x--0--|--0--0---x--0--0---0---x--0--|
--x-----x----------x-----|---------x-------------x-----|


  E  E  E  E  E  E  E  E     E  E  E  E  E  E  E  E   
--------------------------|--------3--3--3-----------|
-----8--------------8-----|--------4--------4--6-----|
-----8-----------8--8-----|--------5-----------------|
-----------------8--8-----|-----------------------0--|
--------x--0--x-----x-----|--5--5--x-----5-----x-----|
--x-----x-----x-----x--0--|--------x-----x-----x-----|


  E  S S E  Q    E    E  E     E  S S E  E  E  E   E  S  S  
----------------------------|---------6--6-----------------|
--8-------------------------|---------6--6-----------------|
-------8---------8s--10-----|--7------7--------5h--7--7h-8-|
-------8--------------------|------------------------------|
---------x------------x--0--|--7--7-7-x-----x------x-------|
--0--0---x--0---------x-----|---------x-----x------x-------|


  E  E  E   S   S  E  E  E   E      E  E  E  E  E  E  E  E   
--------6----------6-----5-------|--4-----4--4--4-----------|
--------6----------6-----5-------|--4-----4--4--------6-----|
--7-----7----------------6-------|--5-----5--------5--5-----|
---------------------------------|--------------------------|
--7--7--x------(x)-7--7--x--(0)--|--5--5--x-----5-----x--0--|
--------x--(x)-----------x-------|--------x-----------x-----|


  E  S S E  E  E  E  E  E     E  E  E  S S E  E  E  S S  
---------------------------|--------6------------6------|
--8---------------8--8-----|--6-----6------8-----8------|
-------8----------8--8-----|--7-----7------7-----7------|
------------------------0--|-------------x------------x-|
---------x-----x-----x-----|--7--7--x--x---7--7--x--x---|
--0--0---x--0--x-----x-----|--------x------------x------|


  E  E  E  S S E  E  E  S S    E   S   S  E   S   S  E   S   S  E   S   S   
--------6------6-----6------|--6----------6----------6----------6----------|
--9-----9------6-----6------|--6--(6)-----6--(6)-----6--(6)-----6--(6)-----|
--7-----7-------------------|--7--(7)-(7)-7--(7)-(7)-7--(7)-(7)-7--(7)-(7)-|
-------------x------------x-|--x----------x----------x----------x----------|
--7--7--x--x---7--7--x--x---|--7----------7----------7----------7----------|
--------x------------x------|--x----------x----------x----------x----------|


  E  E   E   E  E   S   S  E   E        Q    E  E  E  E  E   E   
--6--6-------6--6----------6-------||---------------------------|
--6--6--(6)--6--6--(6)-----6--(6)--||---------------------------|
--7-----(7)-----7--(7)-(7)-7--(7)--||*----------5--5------------|
--x-------------x----------x-------||*-------8--------8--8p--5--|
--7------x------7----------7-------||---------------------------|
--x------x------x----------x-------||---0----------0------------|


  E  E  E  E  E   E  E  E     Q    E  E  E  E  E   E   
---------------------------|--------------------------|
---------------------------|--------------------------|
-----5--5--5--L\-----------|----------5--5------------|
--8------------------------|-------8--------8--8p--5--|
---------------------x-----|--------------------------|
--0--------0------0--x--0--|--0----------0------------|


  E  E  E  E  E   E  E  E     Q    E  E  E  E  E  E   
---------------------------|-------6-----------------|
---------------------------|--8-------8-----------8--|
-----5--5--5--L\-----------|--8-------8-----------8--|
--8------------------------|----------------8--------|
---------------------x-----|--0----------0-----x--0--|
--0--------0------0--x--0--|-------------------x-----|


  E  E   E  E  E  E  E  E     Q    E  E  E  E  E  E   
---------------------------|-------6--------------8--|
--L--8p--6--6--------------|--8-------8--------------|
--L------------8-----------|--8-------8--------------|
------------------8-----8--|----------------8--------|
--L------------------0-----|--0----------0-----x--0--|
---------------------------|-------------------x-----|


  E  E   E  E  E  E  E  E       E  E  E  E  E  E  E  E   
--L--8p--6--6---------------||--------------------------|
---------------8------------||--------------------------|
------------------8--------*||--------------------------|
------------------8-----8--*||--------------------------|
--L------------------0------||--x-----x-----x-----x-----|
----------------------------||--0-----0-----0-----0-----|


  E  E  E   E   E  E  E  E     S  S  S S  S  S S   S  S S  S  S S  S S  S  
----------------------------|---------------------------------------------|
----------------------------|---------------------------------------------|
----------------------------|---------------------------------------------|
----------------------------|--x-------x-------x--------x-------x----x----|
--x-----x-------x-----x-----|--x-------x-------x--------x-------x----x----|
--0-----0--(0)--0--0--0--0--|--0h-7p-0-0h-8p-0-0h-10p-0-0h-8p-0-0h-7-0h-7-|


  S  S  S S  S  S S   S  S S  S  S  E  E    
-------------------------------------------|
-------------------------------------------|
-------------------------------------------|
--x-------x-------x--------x--------x------|
--x-------x-------x--------x--------x------|
--0h-7p-0-0h-8p-0-0h-10p-0-0h-8p-0-12--L\--|


  ^                                                                
  E  E  E   S   S  E  E  E   S   S     S  E  S E  E  E  E  E  S S  
--3-----3-------------6-------------|--3----------3---------------|
--4-----4--(4)--------4-------------|--4h-6--6----4--------4------|
--3-----3--(3)-(3)----3-----(3)-----|--3-----3----3--------3------|
--5------------(5)----------(5)-(5)-|----------------------5------|
--------x----------0-----0----------|----------x-----x-----x----x-|
--0--0--x----------x-----x----------|--0-------x-----x--0--x--x---|


  E.  S E  E  E  E  E  S S    S  E  S E  E  E  E  E  S S  
-----------6---------------|--3----------------3--3------|
--4---4----4--------4------|--4h-6--6----4-----4--4------|
--3---3----------3--3------|--3-----3----3--------3------|
-----------------5---------|----------------x------------|
--x-----x-----x-----x----x-|----------x-----x-----x----x-|
--0-----x-----x-----x--x---|--0-------x--0--------x--x---|


  E  E  E  E  E  E  E    E     E   S  S S  S  S  S  E  E  E  E   
----------------------------|-----(6)-----(6)-------------------|
--8--------------------6g8--|------8-------8--------8--8--8--6--|
-----8-----8-------------8--|------8-------8----(8)-8-----8-----|
-----8-----8-----8----------|-----------------------------------|
--0-----x-----0-----x----0--|-----------x-----------0-----x-----|
--------x-----x-----x-------|--x--------x-----------x-----x-----|


  E  E  E  E  E  E  E    E     E   S  S S  S  S  S  E  E  E  E   
----------------------------|-----(6)-----(6)-------------------|
--8-------------------------|------8-------8--------8-----------|
-----8-----8-----------7g8--|------8-------8----(8)-8-----------|
-----8-----8-----8-------8--|-----------------------------------|
--0-----x-----0-----x----0--|-----------x-----------0--0--x--0--|
--------x-----x-----x-------|--x--------x-----------x-----x-----|


  E  S S E  E  E  E  E   S   S     S  E  S E  E  E  E  E  S S  
------------3-------------------|--3--------------------------|
--4----4----4-------------------|--4h-6--6----4--------4------|
--3----3----3--------3----------|--3-----3----3-----3--3------|
---------------------5----------|----------------x--5---------|
---------x-----x-----x--(0)-(0)-|----------x-----x-----x----x-|
--0--0---x-----x--0--x----------|--0-------x--0--------x--x---|


  E  S S E  E  E  E  E   S   S     S  E  S E  E  E  E  E  S S  
--6----6----6-------------------|--3----------------3--3------|
--4----4----4-------------------|--4h-6--6----4-----4--4------|
--3---------3--------3----------|--3-----3----3--------3------|
---------------------5----------|----------------x------------|
---------x-----x-----x--(0)-(0)-|----------x-----x-----x----x-|
--0--0---x-----x--0--x----------|--0-------x--0--------x--x---|


  E  E  E  E  E  E  E    E     E   S  S S  S  S  S  E  E  E  E   
----------------------------|-----(6)-----(6)-------------------|
--8-------------------------|------8-------8--------8--6--------|
-----8-----8-----------7g8--|------8-------8----(8)-8--8--------|
-----8-----8-----8-------8--|-----------------------------------|
--0-----x-----0-----x----0--|-----------x-----------0--0--x--0--|
--------x-----x-----x-------|--x--------x-----------x-----x-----|


  E  E  E  E  E  E  E    E     E  E  Q    E   Q.       
----------------------------|------------------------||
--8--------------------8g9--|--8--6--6----L\---------||
-----8-----8-------------8--|--8--8--8----L\---------||
-----8-----8-----8----------|--------8----L\---------||
--0-----x-----0-----x----0--|--x-----0---------------||
--------x-----x-----x-------|--x-----x---------------||




Duration Legend
---------------
W - whole
H - half
Q - quarter
E - 8th
S - 16th
T - 32nd
X - 64th
. - note dotted
|-n-|  - n-tuplets


Tablature Legend
----------------
L - tied note
x - dead note
g - grace note
(n) - ghost note
> - accentuded note
NH - natural harmonic
AH - artificial harmonic
TH - tapped harmonic
SH - semi harmonic
PH - pitch harmonic
h - hammer on
p - pull off
b - bend
br - bendRelease
pb - preBend
pbr - preBendRelease
brb - bendReleaseBend
\n/ - tremolo bar dip
\n - tremolo bar dive
-/n - tremolo bar Release up
/n\ - tremolo bar inverted dip
/n - tremolo bar return
-\n - tremolo bar Release down
S - shift slide
s - legato slide
/ -  slide into from below or out of upwards
\ -  slide into from above or out of downwards
~ - vibrato
W - wide vibrato
tr - trill
TP - tremolo picking
T - tapping
S - slap
P - pop
< - fade in
^ - brush up
v - brush down
comments
print report bad tab
I want to post or [tab]
guest
You may want to rate the tab now too:
select rating
Please do not post tabs as comments. Select "correction" instead!