Oops, an error
Loading. Please wait.

Love Story Tab

ver1
ver1

Whole song

Interactive

More versions @911Tabs.com
86,523 views 286 this week
3 commentsread comments
1 2 3 4 5
excellent!
x 7
Autoscroll
+/-
esc
set tempo
stop
Contributor
Difficulty
intermediate
Hey! There's an official Ultimate Guitar app which is ideal
for learning songs when you're away from computer. Get the app
WARNING: You are trying to view
                                    content from Ultimate-Guitar.com
                                    in an unauthorized application,
                                    which is prohibited.

                                    Please use an official Ultimate
                                    Guitar Tabs application for iPhone,
                                    iPad or Android to access legitimate
                                    chords, guitar, bass, and drum tabs
                                    from Ultimate-Guitar.com database.

                                    Type "ultimate guitar tabs" in Apple
                                    App Store's or Android Market's
                                    search to find the application.


Title: Love Story

Artist: Sungha Jung

Arranged by: Sungha Jung

Tabbed by: Ryan R. Gonzales

Location: Rosario, Batangas - Philippines

Band: http://www.youtube.com/watch?v=dY0_cK4tskI

Tuning: e B G D A E (Standard Tuning)



     Intro:                                                  
            PM PM PM PM PM PM PM       PM PM PM PM PM PM PM  
     E      E  E  E  E  E  E  E     E  E  E  E  E  E  E  E   
E||------------0-----0-----------|--------0-----0-----------|
B||---------------3-----3-----3--|-----------3-----3-----3--|
G||---------2--------------2-----|-----2--------------2-----|
D||--4---------------------------|--4-----------------------|
A||------------------------------|--------------------------|
E||------------------------------|--------------------------|


     PM PM PM PM PM PM PM       PM PM PM PM PM PM PM  
  E  E  E  E  E  E  E  E     E  E  E  E  E  E  E  E   
--------0-----0-----------|--------0-----0-----------|
-----------3-----3-----3--|-----------3-----3-----3--|
-----2--------------2-----|-----2--------------2-----|
--2-----------------------|--2-----------------------|
--------------------------|--------------------------|
--------------------------|--------------------------|


     PM PM PM PM PM PM PM       PM PM PM PM PM PM PM  
  E  E  E  E  E  E  E  E     E  E  E  E  E  E  E  E   
--------0-----0-----------|--------0-----0-----------|
-----------3-----3-----3--|-----------3-----3-----3--|
-----4--------------4-----|-----4--------------4-----|
--4-----------------------|--4-----------------------|
--------------------------|--------------------------|
--------------------------|--------------------------|


     PM PM PM PM PM PM PM       PM PM PM PM PM PM PM  
  E  E  E  E  E  E  E  E     E  E  E  E  E  E  E  E   
--------0-----0-----------|--------0-----0-----------|
-----------3-----3-----3--|-----------3-----3-----3--|
-----2--------------2-----|-----2--------------2-----|
--5-----------------------|--5-----------------------|
--------------------------|--------------------------|
--------------------------|--------------------------|


  Verse:                                                  
  E      E  E  E  Q    E  E     E   E  E  E  E  E  E  E   
-----------------------------|------------0--------------|
--3---------3-----3-------3--|--2h--3-----------3-----3--|
---------2-----2-------2-----|---------2-----------2-----|
--0---------------0----------|--0------------0-----------|
-----------------------------|---------------------------|
-----------------------------|---------------------------|


  E   E  E  E  E  E  E  E     E   E  E  E  E  E  E   E   
---------------------------|------------0---------------|
--2h--3-----3--------3--3--|--2h--3-----------3--2h--3--|
---------0--------0--------|---------0------------------|
---------------------------|----------------------------|
---------------------------|----------------------------|
--3------------3-----------|--3------------3------------|


     PM PM PM PM PM PM PM                              
  E  E  E  E  E  E  E  E     E  E  E  E  E   E  E  E   
--------0-----0-----------|---------------------------|
--0--------3-----3-----3--|--------3--3--3s--2--2-----|
--------------------4-----|---------------------------|
-----4--------------------|-----4------------------0--|
--2-----------------------|--2------------------------|
--------------------------|---------------------------|


           PM PM PM PM PM       PM PM PM PM PM          
  E  E  E  E  E  E  E  E     E  E  E  E  E  E   E   E   
--------------0-----------|--------0-----0-------------|
--------0--------3-----3--|-----------3-----3--(3)--3--|
--2--------0--------2-----|-----2--------------(0)-----|
-----0--------------------|---------------------x------|
--------------------------|----------------------------|
--3-----------------------|--3-------------------------|


  E  E  E  E  E  E  E  E     E   E  E  E  E  E   E   E   
--------------------------|------------0----------------|
--3-----3--3--------3--3--|--2h--3-----------3--(3)--3--|
-----2-----------2--------|---------2-----------(2)-----|
--0-----------0-----------|--0------------0------x------|
--------------------------|-----------------------------|
--------------------------|-----------------------------|


  E   E  E  E  E  E  E  E     E   E  E  E  E  E   E   E   
---------------------------|------------0----------------|
--2h--3-----3--------3--3--|--2h--3-----------3---2h--3--|
---------0--------0--------|---------0-----------(0)-----|
---------------------------|---------------------(0)-----|
---------------------------|-----------------------------|
--3------------3-----------|--3------------3------x------|


     PM PM PM PM PM PM PM                                
  E  E  E  E  E  E  E  E     E  E  E  E  E   E   E   E   
--------0-----0-----------|-----------------------------|
--0--------3-----3-----3--|--------3--3--3s--2---2------|
--------------------4-----|---------------------(0)-----|
-----4--------------------|-----4---------------(0)--0--|
--2-----------------------|--2-------------------x------|
--------------------------|-----------------------------|


  E  E  E  E  E  E  E  E     E  E  E  Q    E   E   E   
--------------------------|---------------------------|
--------0--------------2--|-----------2-------(2)--0--|
--2--------------2--------|--------2-------2--(2)-----|
-----2--------2-----2-----|-----2-------------(2)-----|
--0--------0--------------|--0-----------------x------|
--------------------------|---------------------------|


  Refrain:                                                           
  E        E   E   E  E  E   E   E     E   E   E   E  E  E   E   E   
------------------------------------|--------------0----------------|
--3-----------(3)--3---------3---3--|--2h--3--(3)--------3--(3)--3--|
--------------(0)-----------(0)-----|---------(0)-----------(0)-----|
-----------0--(0)--------0--(0)-----|---------(2)-----------(2)-----|
------------------------------------|--0-------x------0------x------|
--3------------x------3------x------|-------------------------------|


  E  E   E   E  E  E   E   E      E    E    E   Q    E   E   E   
---------0--------------------|---5----3--------2--------2---0--|
--3--3---3------3--3---3---3--|--(3)--(3)--(3)-----------3------|
--------(4)-----------(4)-----|------------(2)-------2--(2)-----|
--------(4)-----------(4)-----|---0---------x---0-------(0)-----|
--2------x---2---------x------|---------------------------------|
------------------------------|--------------------------x------|


  E  E   E   E   E   E   E    E       E    E    E   E  E  E   E   S  S  
--2--0---2---0---2----------------|---0----0---(0)--0-------------2s-3-|
--------(3)-----(3)-----(3)---3---|--(3)--(3)--(3)--------3--(3)-------|
--------(0)-----(0)-----(0)--(0)--|------------(0)-----------(0)-------|
------------------------(0)-------|------------(2)-----------(2)-------|
-------------------------x--------|---0---------x------0------x--------|
--3------x-------3---3------------|------------------------------------|


                  v                v                           
  E  E   E   Q    E   E   E     E  E  E  E  E   E    E    E    
--L--2---2--------2---2------|--------3--2------0---(0)-------|
--------(3)-------3--(3)-----|-----3-----------(3)--(3)-------|
--------(4)-------4--(4)-----|-----4---------------------(0)--|
--------(4)----------(4)-----|-----4-----------------x--------|
--2------x---2--------x---2--|--L-----x-----2-----------------|
-----------------------------|--------------------------------|


  Chorus:                                                            
  E       E   E   E  E  E   E   E     E   E    E   E  E  E   E   E   
--------------3------2--0---0------|------0----0------2------0------|
--3-------3--(3)-----------(3)-----|--3--(3)--(3)--3-----3--(3)-----|
-------------(2)-----------(2)-----|-----(2)--(2)-----------(2)-----|
--0-----------x---0---------x---0--|-----------x------0-------------|
-----------------------------------|-------------------------x---0--|
-----------------------------------|--------------------------------|


  E  E   E   E  E  E   E   E     E  E   E   E  E  E   E   E   
---------0------2------0------|-----0---0------2------0------|
--3-----(3)--3--------(3)-----|--3-----(3)--3-----3--(0)-----|
--------(0)-----------(0)-----|--------(0)-------------------|
--------(2)-----------(2)-----|--------(2)-------------------|
--0--0---x------0--0---x---0--|--0------x------0------x---0--|
------------------------------|------------------------------|


  E  E   E   E  E  E   E   E     E  E   E   E  E  E   E   E   
---------0------2------0------|---------0------2------0------|
--3-----(3)--3--------(3)-----|--3-----(3)--3--------(3)-----|
--------(4)-----------(4)-----|--------(4)-----------(4)-----|
--------(4)-----------(4)-----|--------(4)-----------(4)-----|
--2--2---x------2--2---x---2--|--2--2---x------2--2---x---0--|
------------------------------|------------------------------|


  E   E    E   E  E  E   E   E      E   E   E   E  E  E  Q     
-----------0------2------2------|---2---0---2---0--2----------|
--3---3---(3)--3--------(3)--3--|--(3)-----(3)-----3-----3----|
-----(0)--(0)-----------(0)-----|----------(0)-----------2----|
--------------------------------|----------(2)----------------|
-------------------------x------|---0-------x------0----------|
--3---3----x------3--3----------|-----------------------------|


  Interlude:                                                    
             PM PM PM PM PM PM PM       PM PM PM PM PM          
  E          E  E  E  E  E  E  E     E  E  E  E  E  E   E   E   
----------------0-----0-----------|--------0-----0-------------|
-------------------3-----3-----3--|-----------3-----3--(3)-----|
-------------2--------------2-----|-----2--------------(2)--2--|
--0-------------------------------|--0------------------x------|
----------------------------------|----------------------------|
----------------------------------|----------------------------|


  Verse:                                                            
  E      E   E   E  E  E   E   E      E   E   E   E  E  E   E   E   
----------------------------------|---------------0----------------|
--3----------3---3--------(3)--3--|---2h--3--(3)--------3--(3)--3--|
---------2--(2)--------2--(2)-----|--(2)-----(2)-----------(2)-----|
--0----------x------0------x------|---0-------x------0------x------|
----------------------------------|--------------------------------|
----------------------------------|--------------------------------|


  E   E   E   E  E  E   E   E     E   E   E   E  E  E   E    E   
-------------------------------|--------------0-----------------|
--2h--3-------3---------3---3--|--2h--3-------------3--(2)h--3--|
---------(0)--------0---L---L--|---------(0)-----------(0)------|
---------(0)-----------(0)-----|---------(0)-----------(0)------|
-------------------------------|------------------------x-------|
--3-------x------3------x------|--3-------x------3--------------|


  E  E   E   E  E  E   E   E     E  E   E   E  E   E   E   E   
---------0------0-------------|-------------------------------|
--0-----(3)--3-----3-------3--|--------(3)--3--3s--2--(2)-----|
--------(4)------------4------|--------(4)------------(0)-----|
-----4--(4)-----------(4)-----|-----4--(4)------------(0)--0--|
--2------x------2------x------|--2------x--------------x------|
------------------------------|-------------------------------|


  E  E   E   E  E  E   E   E     E  E   E   S  S E  E   E    E    
------------------------------|-------------2s-3----2---2--------|
---------0---------0-------2--|---------------------0--(0)-------|
--2-----(2)--------2--(2)--2--|---------2--------------(0)--(0)--|
-----2--(2)-----2-----(2)-----|-----2--(2)-----------------------|
--0------x---0---------x------|--0------x--------0------x----0---|
------------------------------|----------------------------------|


  Refrain:                                                           
  E        E   E   E  E  E   E   E     E   E   E   E  E  E   E   E   
------------------------------------|--------------0----------------|
--3-----------(3)--3---------3---3--|--2h--3--(3)--------3--(3)--3--|
--------------(0)-----------(0)-----|---------(0)-----------(0)-----|
-----------0--(0)--------0--(0)-----|---------(2)-----------(2)-----|
------------------------------------|--0-------x------0------x------|
--3------------x------3------x------|-------------------------------|


  E  E   E   E  E  E   E   E      E    E    E   Q    E   E   E   
---------0--------------------|---5----3--------2--------2---0--|
--3--3---3------3--3---3---3--|--(3)--(3)--(3)-----------3------|
--------(4)-----------(4)-----|------------(2)-------2--(2)-----|
--------(4)-----------(4)-----|---0---------x---0-------(0)-----|
--2------x---2---------x------|---------------------------------|
------------------------------|--------------------------x------|


  E  E   E   E   E   E   E    E       E    E    E   E  E  E   E   S  S  
--2--0---2---0---2----------------|---0----0---(0)--0-------------2s-3-|
--------(3)-----(3)-----(3)---3---|--(3)--(3)--(3)--------3--(3)-------|
--------(0)-----(0)-----(0)--(0)--|------------(0)-----------(0)-------|
------------------------(0)-------|------------(2)-----------(2)-------|
-------------------------x--------|---0---------x------0------x--------|
--3------x-------3---3------------|------------------------------------|


                  v                v                           
  E  E   E   Q    E   E   E     E  E  E  E  E   E    E    E    
--L--2---2--------2---2------|--------3--2------0---(0)-------|
--------(3)-------3--(3)-----|-----3-----------(3)--(3)-------|
--------(4)-------4--(4)-----|-----4---------------------(0)--|
--------(4)----------(4)-----|-----4-----------------x--------|
--2------x---2--------x---2--|--L-----x-----2-----------------|
-----------------------------|--------------------------------|


  Chorus:                                                            
  E       E   E   E  E  E   E   E     E   E    E   E  E  E   E   E   
--------------3------2--0---0------|------0----0------2------0------|
--3-------3--(3)-----------(3)-----|--3--(3)--(3)--3-----3--(3)-----|
-------------(2)-----------(2)-----|-----(2)--(2)-----------(2)-----|
--0-----------x---0---------x---0--|-----------x------0-------------|
-----------------------------------|-------------------------x---0--|
-----------------------------------|--------------------------------|


  E  E   E   E  E  E   E   E     E  E   E   E  E  E   E   E   
---------0------2------0------|-----0---0------2------0------|
--3-----(3)--3--------(3)-----|--3-----(3)--3-----3--(0)-----|
--------(0)-----------(0)-----|--------(0)-------------------|
--------(2)-----------(2)-----|--------(2)-------------------|
--0--0---x------0--0---x---0--|--0------x------0------x---0--|
------------------------------|------------------------------|


  E  E   E   E  E  E   E   E     E  E   E   E  E  E   E   E   
---------0------2------0------|---------0------2------0------|
--3-----(3)--3--------(3)-----|--3-----(3)--3--------(3)-----|
--------(4)-----------(4)-----|--------(4)-----------(4)-----|
--------(4)-----------(4)-----|--------(4)-----------(4)-----|
--2--2---x------2--2---x---2--|--2--2---x------2--2---x---0--|
------------------------------|------------------------------|


  E   E    E   E  E  E   E   E      E   E   E   E   E    E    E   E   
-----------0------2------2------|---2---0---2---0---2----------------|
--3---3---(3)--3--------(3)--3--|--(3)-----(3)-----(3)--(3)---3------|
-----(0)--(0)-----------(0)-----|----------(0)-----(0)--(0)--(0)--0--|
--------------------------------|----------(2)----------------x------|
-------------------------x------|---0-------x-------0----0-----------|
--3---3----x------3--3----------|------------------------------------|


  E  E   E   E  E  E   E   E     E   E    E   E  E  E   E   E   
---------3------2--0---0------|------0----0------2------0------|
--3--3--(3)-----------(3)-----|--3--(3)--(3)--3-----3--(3)-----|
--------(2)-----------(2)-----|-----(2)--(2)-----------(2)-----|
--0------x---0---------x---0--|-----------x------0-------------|
------------------------------|-------------------------x---0--|
------------------------------|--------------------------------|


  E  E   E   E  S S E   E   E     E  E   E   E  E  E   E   E   
---------0------2---2---0------|---------0------5------0------|
--3-----(3)--3---------(3)-----|-----3--(3)--3--------(0)-----|
--------(0)------------(0)-----|--------(0)-------------------|
--------(2)------------(2)-----|--------(2)-------------------|
--0--0---x------0---0---x---0--|--0------x---0--0--0---x---0--|
-------------------------------|------------------------------|


  E  E   E   E  E  E   E   E     E  E   E   E  E  E   E   E   
---------0------2------0------|---------0------2------0------|
--3-----(3)--3--------(3)-----|--3-----(3)--3--------(3)-----|
--------(4)-----------(4)-----|--------(4)-----------(4)-----|
--------(4)-----------(4)-----|--------(4)-----------(4)-----|
--2--2---x------2--2---x---2--|--2--2---x------2--2---x---0--|
------------------------------|------------------------------|


   E    E    E    E    E   E   E   E      E   E   E   E  E  E  Q      
---2----0----2----0----2-------2------|---2---0---2---0--2-----------|
--(3)--(3)--(3)--(3)--(3)-----(3)--3--|--(3)-----(3)-----3-----3-----|
------------(0)---------------(0)-----|----------(0)-----------2~----|
--------------------------------------|----------(2)-----------------|
-------------------------------x------|---0-------x------0-----------|
---3---------x---------3---3----------|------------------------------|


  Interlude:                                                          
  E          E   E   E  E  E   E   E     E  E   E   E  E  E   E   E   
-----------------0-------------0------|---------0-------------0------|
----------------(0)-----7-----(0)-----|--------(0)-----7--7--(0)-----|
-------------7--(7)--7-----7--(7)--7--|-----7--(7)--7--------(7)-----|
--0--------------x------0------x------|--0------x------0-----(0)--0--|
--------------------------------------|------------------------------|
--------------------------------------|-----------------------x------|


  E  E   E   E  E  E   E   E     E  E   E   E  E  E  E  E   
-----------------------0------|---------0------------------|
--------(0)-----7-----(0)-----|--------(0)--------------0--|
--6--7--(7)--7-----7--(7)--7--|-----7--(7)--7--6--7--6-----|
------------------------------|----------------------------|
------------------------------|----------------------------|
--8------x------8------x------|--8------x------8-----x-----|


  E  E   E   E  E  E   E   E     E  E  E  E  E  E  E  E   
----------------0-------------|--------------------------|
--8------7--------------------|-----------0--------------|
-----7--(7)--7-----7--(7)--7--|--6--7--6--------0-----0--|
------------------------------|--------------7-----4-----|
------------------------------|--------------------------|
--7------x------7------x------|--7-----x-----7-----x-----|


                                          Bridge:           
  E  E  E  E  E  E  E  E     E   E  E  E  E       E  E  E   
--0-----------------------|---------------2p------0--------|
-----------------0--0-----|-----------------------------2--|
-----7--7--6--6--------2--|--2p--0--0----------------0-----|
--------------------------|------------4-------------------|
--------x-----x-----x-----|--0------x-----0----------------|
--6-----------------------|--------------------------------|


                                    ^                       
  Q     E   Q     E    E    E       Q.      Q    E   E  E   
--------------------------------|-----------------------0--|
------------3-------------------|--(3)-----------2h--3-----|
-------(0)------------(0)-------|--(0)------0--------------|
-----------------(0)-------(0)--|--(0)---------------------|
--2-----------------------------|--(2)---------------------|
--------------------------------|--(3)---------------------|


                              ^                        
  E  E  E  E  E  E  E  E      Q.      E  E   E  E  E   
--2--2--2--2--2--3--2--0--|--------------2p--0--------|
--3--3--3--3--3--3--------|--(2)-------------------2--|
--------------------------|--(2)------2---------0-----|
--0--0--------------------|--(2)----------------------|
--------------------------|--(0)----------------------|
--------------------------|---------------------------|


                                     ^                         
  E  S  S  E   Q     E    E   E      H          E    E   Q     
---------------0-----------------|----------------------------|
-----Ls-3---------------------3--|---L-------------------3----|
----------(0)------------(0)-----|--(0)-------------(0)--0----|
--------------------(0)----------|--(0)--------(0)------------|
--2------------------------------|--(2)-----------------------|
---------------------------------|--(3)-----------------------|


              |----3----|                                    
  E  E  E  E  Q    Q    Q       Q     E    E   E   E  E  E   
--2--2--2--2--5----2----0----|--0--------------2p--0--------|
--3--3--3--3-------3---------|---------------------------3--|
-----------------------------|------------(2)---------------|
--0--0-----------------------|-------(2)--------------------|
-----------------------------|--0---------------------0-----|
-----------------------------|------------------------------|


  Chorus:                                                   
  PM      PM PM PM PM  PM PM PM    PM PM PM PM PM PM PM PM  
  E       E  E  E  E   E  E  E     E  E  E  E  E  E  E  E   
-------------3-----2p--0--------|--------0-----2-----0-----|
----------3---------------3-----|-----3-----3-----3--3-----|
--------------------------------|--------------------------|
--0-------0--0--0--0---0--0--0--|--0--0--0--0--0--0--0-----|
--------------------------------|-----------------------0--|
--------------------------------|--------------------------|


  PM PM PM PM PM PM PM PM    PM PM PM PM PM PM PM PM  
  E  E  E  E  E  E  E  E     E  E  E  E  E  E  E  E   
--------0-----2-----0-----|--------0-----2-----0-----|
-----3-----3--3-----3-----|-----3-----3--3-----0-----|
--------------------------|--------------------------|
--------------------------|--------------------------|
--0--0--0--0--0--0--0--0--|--0--0--0--0--0--0--0--0--|
--------------------------|--------------------------|


  PM PM PM PM PM PM PM PM    PM PM PM PM PM PM PM PM  
  E  E  E  E  E  E  E  E     E  E  E  E  E  E  E  E   
--------0-----2-----0-----|--------0-----2-----0-----|
--3-----3--3--------3-----|-----3-----3--------0-----|
--------------------------|--------------------------|
--------------------------|--------------------------|
--2--2--2--2--2--2--2--2--|--2--2--2--2--2--2--2--0--|
--------------------------|--------------------------|


  PM PM PM PM PM PM PM PM    PM PM PM PM PM          
  E  E  E  E  E  E  E  E     E  E  E  E  E  E  Q     
--------0-----2-----0-----|--------0-----2-----0----|
--3--3-----3--------------|--3--3-----3--3-----0----|
--------------------------|-------------------------|
--------------------------|--------------------0----|
--------------------------|--0--0--0--0--0----------|
--3--3--3--3--3--3--3--3--|-------------------------|


      v                                                                      
  E   E    E   E  E  E   E    E       E    E    E    E    S  S  E    E   E   
--0---0----7------4--2---2----0---|---0----2----2----0----2s-4-(0)---2------|
--0---0---(0)-----------(0)--(0)--|--(0)--(0)--(0)--(0)--(0)---(0)--(0)-----|
--1--(0)----------------(0)-------|------------(0)------------------(0)-----|
----------------------------------|-----------------------------------------|
----------------------------------|----------------------------------x---0--|
--0--------x---0---------x--------|---0---------x---------0-----------------|


  E  E  E  E  E  E   E   E     E  E  E  E  E  E  E    E   
-----0--2-----4--4---2------|-----0--2-----4-----2-------|
--------------------(4)-----|----------------------------|
----------------------------|----------------------------|
----------------------------|----------------------------|
--2-----x--2---------x---2--|--2-----x--2-----2--x--2g4--|
----------------------------|----------------------------|


  E  E  E  E  E  E  E  E     E  E  E  E  E  E  E   E    
--------------4-----------|--------------4-------------|
--5-----7--5--------7-----|--5--5--7--5--------7-------|
--------------------------|-----------------------(0)--|
-----6-----------------6--|-----------------------(0)--|
--L-----x-----4--4--x-----|--4-----x-----4--4--x---0---|
--------------------------|----------------------------|


  E  E   E    E   E  E   E   E     E  E  E  E  E   E  E  E   
--4--2---4----2---4------4------|--4--2--4--2--4p--2--x-----|
--2--2--(2)--(2)--2------2------|---------------------x-----|
--2-----(2)-------2------2---0--|---------------------x-----|
--------(2)-------------(2)-----|---------------------x-----|
--0--0---x--------0--0---x------|--2-----x-----2------x--2--|
--------------------------------|---------------------------|


     v            v                 v                          
  E  E   E   Q    E   E   E     E   E    E   E  E  S  S E  E   
-----0---0--------0---0------|-----------0---------2s-4----2--|
-----0---0--------0---0------|------0----0--------------------|
-----1---1--------1---1------|------1----1------1-------------|
--------(2)----------(2)-----|------2---(2)-------------------|
--------(2)----------(2)-----|-----(2)--(2)-------------x-----|
--0------x---0--------x---0--|--L--------x---0----------------|


                 v                  v                            
  E  E  E  Q     E    E   E     E   E    E   E   E   S  S E  E   
-----4-----------2----2------|------2----2----------------------|
-----------------4----4------|------4----4------(4)--5s-7----5--|
----------------(2)---2------|------2----2------(2)-------------|
----------------(4)--(4)-----|-----(4)--(4)-----(4)-------------|
--2-----x--2----------x---2--|--L--------x---2------------x-----|
-----------------------------|----------------------------------|


                  v              v          v         
  E   E   E  Q    E  E  E     E  E  E  Q    E  E  E   
------------------4--4-----|-----4--4-------4--------|
-----(5)----------5--5-----|-----5--5-------5--5-----|
------6-----------6--6-----|-----6--6-------6--6--0--|
------6--------------6-----|--------6----------6--0--|
--4-------x--4-------x--4--|--L-----x--4-------x-----|
---------------------------|-------------------------|


  E  E  E  E  E  E   E   E     E   E    E   S  S E   E    E   E   
--0--0-----0-----0-------0--|---------------0h-2--------------0--|
--2--2-----2-----2--(2)-----|------2---(2)-----------2-----------|
--2--------2--------(2)-----|------2---(2)-----------2---(2)-----|
--------------------(2)-----|-----(2)--(2)----------(2)--(2)-----|
--0-----x-----0------x------|--0--------x--------0--------x------|
----------------------------|------------------------------------|


  ^                  
  W                  
--0----------------||
--0----------------||
--1----------------||
--2----------------||
--2----------------||
--0----------------||




Duration Legend
---------------
W - whole
H - half
Q - quarter
E - 8th
S - 16th
T - 32nd
X - 64th
. - note dotted
|-n-|  - n-tuplets


Tablature Legend
----------------
L  - tied note
x  - dead note
g  - grace note
h  - hammer on
p  - pull off
s  - legato slide
~  - vibrato
^  - downstroke
PM - palm mute



echo "Hello World!";

Play until your fingers bleed!


comments
print report bad tab
3 comments total.
0 reply
guitarhero_15 wrote on December 22 2011, 11:25 pm

tol nice tab and nice band.......sana marami ka pang ipo-post na tab........

0 reply
guitarhero_15 wrote on January 30 2012, 04:33 am

pa post po rin ng tab ng just the way you are - sungha jung.request lng po to kung pwde :)...tnx po

0 reply
WannaGoToHell wrote on April 17 2013, 01:47 pm

Awesome Tab... You rock

I want to post or [tab]
guest
You may want to rate the tab now too:
select rating
Please do not post tabs as comments. Select "correction" instead!