Oops, an error
Loading. Please wait.

That Xx Tab

20,522 views 42 this week
no commentswrite comment
1 2 3 4 5
excellent!
x 5
add to favorites launch autoscroll
font size
0
reset
Autoscroll
+/-
esc
set tempo
stop
Contributor
WARNING: You are trying to view
                                    content from Ultimate-Guitar.com
                                    in an unauthorized application,
                                    which is prohibited.

                                    Please use an official Ultimate
                                    Guitar Tabs application for iPhone,
                                    iPad or Android to access legitimate
                                    chords, guitar, bass, and drum tabs
                                    from Ultimate-Guitar.com database.

                                    Type "ultimate guitar tabs" in Apple
                                    App Store's or Android Market's
                                    search to find the application.
That XX - G-Dragon
Sungha Jung
yuji812
     H        E  E  E   E     E  E  E  S S E  E  E  E   
E||------------------------|---------------------------|
B||--------------3--3p--2--|--3--2--3--2-3----2--3--2--|
G||------------------------|--4--4--4----4-------4-----|
D||------------------------|---------------------------|
A||------------------------|--------x------------x-----|
E||------------------------|--3-----x------3-----x-----|


  E  E  E  E  E  E  E  E     E  E  E  S S E  E  E  E   
-----------------------2--|------------------------2--|
--3--------------3--------|--3--2--3--2-3----2--3-----|
-----4--------4-----------|--3--3--3----3-------3-----|
--------------------------|---------------------------|
--------x-----------x-----|--------x------------x-----|
--3-----x--3--------x-----|--2-----x------2-----x-----|


  E   E  E  E  E  E  E  E     E  E  E  S  S E  E  E  E   
---------------------------|----------------------------|
--3p--2-----------3--------|--3--2--3--2h-3----3--3--2--|
--3------------3--3-----0--|--2--2--2--2----------2-----|
---------------------------|----------------------------|
---------x-----------x-----|--2-----x-------2-----x-----|
--2------x--2--------x-----|--------x-------------x-----|


  E  E  E  S  S E  E  E  E     E  E  E  E  E  E  E  E   
----------------------------|--3-----2-----0-----------|
--3--2--3--2h-3-------------|--3-----3--------3-----3--|
--2--2--2--2-------2--------|-----------------0-----2--|
----------------------------|--------------------------|
--2-----x-------2-----x--0--|--0--0--x--0--------x-----|
--------x-------------x-----|--------x-----------x-----|


  E  E  E  E  E  E  E  E     E  E  E  S S E  E  E  E   
--------------------------|---------------------------|
-----0-----------3--3--2--|--3--2--3--2-3----2--3--2--|
-----2--------2-----2-----|--4--4--4----4-------4-----|
--0--------0--------------|---------------------------|
--------x-----------x-----|--------x------------x-----|
--------x-----------x-----|--3-----x------3-----x-----|


  E  E  E  E  E  E  E  E     E   E  E  E  E  E  E  E   
-----------------------2--|------------------------2--|
--3--------------3--------|--3p--2-----3-----2--3-----|
-----4--------4-----------|--3---------3--------3-----|
--------------------------|---------------------------|
--------x-----------x-----|---------x-----------x-----|
--3-----x--3--------x-----|--2------x-----2-----x-----|


  E   E  E  E  E  E  E  E     E  E  E  S  S E  E  E  E   
---------------------------|----------------------------|
--3p--2-----------3--------|--3--2--3--2h-3----3--3--2--|
--3------------3--3-----0--|--2--2--2--2----------2-----|
---------------------------|----------------------------|
---------x-----------x-----|--2-----x-------2-----x-----|
--2------x--2--------x-----|--------x-------------x-----|


  E  E  E  S  S E  E  E  E     E  E  E  E  E  E  E  E   
----------------------------|--3-----2-----0-----------|
--3--2--3--2h-3-------------|--3-----3--------3-----3--|
--2--2--2--2-------2--------|-----------------0-----2--|
----------------------------|--------------------------|
--2-----x-------2-----x--0--|--0--0--x--0--------x-----|
--------x-------------x-----|--------x-----------x-----|


  E  E  E  E  E  E  E   E      E  E  E  E  E  E  E  S  S  
----------------------------|----------------------------|
-----0-----------3--3--(0)--|-----8-----7--8--7--8--7-10-|
-----2--------2-----2-------|-----7--------7-----7-------|
--0--------0----------------|----------------------------|
--------x-----------x-------|--------x-----------x-------|
--------x-----------x-------|--0-----x-----0-----x-------|


  E  E  E  E  E  E  E  S  S     E  E  E   E   E  E  E   E   
--------------------7-------|------------------------------|
-----7--------8--7--8--7-10-|------7-------------7---------|
--------------7-----7-------|------7------9---------7------|
----------------------------|------------------------------|
--9-----x--9--------x-------|--10-----x--10--10-----x--10--|
--------x-----------x-------|---------x-------------x------|


   E  E  E  E  E  E  E  E      E  E  E  E  E  E  E  S  S  
----------------------------|----------------------------|
------7---------------------|-----8-----7--8--7--8--7-10-|
------7-----9-----7--7--L\--|-----7--------7-----7-------|
---------------------x------|----------------------------|
--10-----x--9--9-----9--L\--|--------x-----------x-------|
---------x-----------x------|--0-----x-----0-----x-------|


  E  E  E  E  E  E  E  E      E  E  E   E   E  E  E  E    
-----------------------7--|------------------------------|
-----7--------8--7--8-----|------7-------------7---------|
--------------7-----7-----|------7------9---------7--L\--|
--------------------------|------------------------------|
--9-----x--9--------x-----|--10-----x--10--10------------|
--------x-----------x-----|---------x--------------------|


  E  E  E  E  E  E  E  E     E  E  E  E  E  E  E  E   
-----5--5--5--x--------0--|--2--2--2--2--2--------0--|
-----5--5--5--x--3--3-----|--3-----3--------3-----3--|
-----7--7--7--x-----------|--------4--------4-----3--|
-----x--x--x--------------|--------------------------|
--x--7--7--7--x-----------|--------x-----------x-----|
--x-----------x-----------|--3-----x-----3-----x--2--|


  E  E  E  E  E  E   E   E     E  E  E  E  E  E  E  E   
--L--0-------------------0--|--2--2--2--2--2--------0--|
--L--3-----------3--(3)-----|--3-----3--------3--------|
--L--3-----------3--(3)-----|--------------------------|
--------------2-------------|--------------------------|
--------x------------x------|--2-----x-----2-----x--0--|
--L-----x--2---------x------|--------x-----------x-----|


  E  S  S E  E  E  E  E  E     E  E  E  E  E  E  E  E   
-----0h-2-------------2--0--|--2--2--2--2--2--------0--|
-------------3-----3--3-----|--3-----3--------3-----3--|
-------------2-----2--2-----|--------4--------4-----3--|
----------------0-----------|--------------------------|
--0-------x-----------x-----|--------x-----------x-----|
----------x-----------x-----|--3-----x-----3-----x--2--|


  E  E  E  E  E  E   E   E     E  E  E  E  E  E  E    E   
--L--0-------------------0--|--2--2--2--2--2--3-----5g7--|
--L--3-----------3--(3)-----|--3-----3--------3-----5g7--|
--L--3-----------3--(3)-----|----------------------------|
--------------2-------------|-------------------------0--|
--------x------------x------|--2-----x-----2-----x-------|
--L-----x--2---------x------|--------x-----------x-------|


  E  E  E  Q     E  Q       H        E  E  E  E     E  E  E  S S E  E  E  E   
--L--5-----2p----0-------|-----------------------|---------------------------|
--L--5-----3--------3----|--L-----------3--3--2--|--3--2--3--2-3----2--3--2--|
--------------------2----|--L--------------------|--4--4--4----4-------4-----|
--L----------------------|-----------------------|---------------------------|
--------x----------------|-----------x-----------|--------x------------x-----|
--------x----------------|-----------x-----------|--3-----x------3-----x-----|


  E  E  E  E  E  E  E  E     E  E  E  S S E  E  E  E   
-----------------------2--|------------------------2--|
--3--------------3--------|--3--2--3--2-3----2--3-----|
-----4--------4-----------|--3--3--3----3-------3-----|
--------------------------|---------------------------|
--------x-----------x-----|--------x------------x-----|
--3-----x--3--------x-----|--2-----x------2-----x-----|


  E   E  E  E  E  E  E  E     E  E  E  S  S E  E  E  E   
---------------------------|----------------------------|
--3p--2-----------3--------|--3--2--3--2h-3----3--3--2--|
--3------------3--3-----0--|--2--2--2--2----------2-----|
---------------------------|----------------------------|
---------x-----------x-----|--2-----x-------2-----x-----|
--2------x--2--------x-----|--------x-------------x-----|


  E  E  E  S  S E  E  E  E     E  E  E  E  E  E  E   E    
----------------------------|--3-----2-----------2-------|
--3--2--3--2h-3----3--3-----|--3-----3--------3--3-------|
--2--2--2--2-------2--2-----|--------------0--0----------|
----------------------------|-----------------------(2)--|
--2-----x-------2-----x--0--|--0--0--x--0--------x-------|
--------x-------------x-----|--------x-----------x-------|


  E  E  E    Q    E  E  E     E  E  E  S S E  E  E  E   
-----------0g2-------------|---------------------------|
--------3---------3--3-----|--3--2--3--2-3----2--3--2--|
-----2------------2--2--0--|--4--4--4----4-------4-----|
--0----------0-------------|---------------------------|
--------x------------x-----|--------x------------x-----|
--------x------------x-----|--3-----x------3-----x-----|


  E  E  E  E  E  E  E  E     E   E  E  E  E  E  E  E   
-----------------------2--|------------------------2--|
--3--------------3--------|--3p--2-----3-----2--3-----|
-----4--------4-----------|--3---------3--------3-----|
--------------------------|---------------------------|
--------x-----------x-----|---------x-----------x-----|
--3-----x--3--------x-----|--2------x-----2-----x-----|


  E   E  E  E  E  E  E  E     E  S S E  Q    E  E   E    
---------------------------|----------------------------|
--3p--2-----------3--------|--3----3-x--3----3--3-------|
--3------------3--3-----0--|--2----2-x--2-------2--(0)--|
---------------------------|----------------------------|
---------x-----------x-----|--2------x--2-------x-------|
--2------x--2--------x-----|--------------------x-------|


  E  S S E  Q    E  E  E     E  E  E  E  E  E  E  E   
--------------------------|--3-----2-----0-----------|
--0----0-x--0-------0-----|--3-----3--------3-----3--|
--2----2-x--2----2--2-----|-----------------0-----2--|
--------------------------|--------------------------|
--2------x--2-------x--0--|--0--0--x--0--------x-----|
--------------------x-----|--------x-----------x-----|


  E  E  E  E  E  E  E   E      E  E  E  E  E  E  E  S  S  
----------------------------|----------------------------|
-----0-----------3--3--(0)--|-----8-----7--8--7--8--7-10-|
-----2--------2-----2-------|-----7--------7-----7-------|
--0--------0----------------|----------------------------|
--------x-----------x-------|--------x-----------x-------|
--------x-----------x-------|--0-----x-----0-----x-------|


  E  E  E  E  E  E  E  S  S     E  E  E   E   E  E  E   E   
----------------------------|------------------------------|
-----7--------8--7--8--7-10-|------7-------------7---------|
--------------7-----7-------|------7------9---------7------|
----------------------------|------------------------------|
--9-----x--9--------x-------|--10-----x--10--10-----x--10--|
--------x-----------x-------|---------x-------------x------|


   E  E  E  E  E  E  E  E      E  E  E  E  E  E  E  S  S  
----------------------------|----------------------------|
------7---------------------|-----8-----7--8--7--8--7-10-|
------7-----9-----7--7--L\--|-----7--------7-----7-------|
---------------------x------|----------------------------|
--10-----x--9--9-----9--L\--|--------x-----------x-------|
---------x-----------x------|--0-----x-----0-----x-------|


                         NH          NH       NH     NH   NH    
  E  E  E  E  E  E  E    E      E    E  E     Q      E    Q     
-----------------------<>7--|--------------<>12----------------|
-----7--------8--7-----<>7--|------<>7-------------<>7---------|
--------------7-------------|------<>7------------------<>7----|
----------------------------|----------------------------------|
--9-----x--9--------x-------|--10-------x----------------------|
--------x-----------x-------|-----------x----------------------|


  E  E  E  E  E  E  E  E     E  E  E  E  E  E  E  E   
-----5--5--5--x--------0--|--2--2--2--2--2--------0--|
-----5--5--5--x--3--3-----|--3-----3--------3-----3--|
-----7--7--7--x-----------|--------4--------4-----3--|
-----x--x--x--------------|--------------------------|
--x--7--7--7--x-----------|--------x-----------x-----|
--x-----------x-----------|--3-----x-----3-----x--2--|


  E  E  E  E  E  E   E   E     E  E  E  E  E  E  E  E   
--L--0-------------------0--|--2--2--2--2--2--------0--|
--L--3-----------3--(3)-----|--3-----3--------3--------|
--L--3-----------3--(3)-----|--------------------------|
--------------2-------------|--------------------------|
--------x------------x------|--2-----x-----2-----x--0--|
--L-----x--2---------x------|--------x-----------x-----|


  E  S  S E  E  E  E  E  E     E  E  E  E  E  E  E  E   
-----0h-2-------------2--0--|--2--2--2--2--2--------0--|
-------------3-----3--3-----|--3-----3--------3-----3--|
-------------2-----2--2-----|--------4--------4-----3--|
----------------0-----------|--------------------------|
--0-------x-----------x-----|--------x-----------x-----|
----------x-----------x-----|--3-----x-----3-----x--2--|


  E  E  E  E  E  E   E   E     E  E  E  E  E  E  E    E   
--L--0-------------------0--|--2--2--2--2--2--3-----5g7--|
--L--3-----------3--(3)-----|--3-----3--------3-----5g7--|
--L--3-----------3--(3)-----|----------------------------|
--------------2-------------|-------------------------0--|
--------x------------x------|--2-----x-----2-----x-------|
--L-----x--2---------x------|--------x-----------x-------|


  E  E  E  Q     E  Q       E  H        E  E  E     E  E  E  Q    E   E  E   
--L--5-----2p----0-------|-----------------------|-----------3----2p--0-----|
--L--5-----3--------3----|--L--L--------3--------|-----3-----3-----------3--|
--------------------2----|--L--L-----------------|-----4-----------------4--|
--L----------------------|--------------------0--|--------------------------|
--------x----------------|-----------------x-----|--------x-----------x-----|
--------x----------------|-----------------x-----|--3-----x--3--------x-----|


  E  E  E  Q    E   E  E     E  E  E  Q    E  E  E   
-----------3----2p--0-----|-----------2----0--------|
-----------3-----------2--|-------------------3--2--|
-----4-----------------3--|-------------------3-----|
--------------------------|-----2-------------------|
--------x-----------x-----|--------x----------x-----|
--3-----x--3--------x-----|--2-----x--2-------x-----|


  E  E  E    Q    E  E  E       E  E  E  Q    E  E  E   
------------------0--------|---------------------------|
-----------2g3----3--------|-------7-----7----5--------|
-------------3----3--------|-------7-----7-------7--6--|
-----2------------------0--|------------------------7--|
--------x------------x-----|----------x----------x-----|
--2-----x----2-------x-----|--5g7--L--x--7-------x-----|


  E  E  E    Q    E  E  E       E  E  E  Q    E   E  E   
------------------0--0-----|----------------------------|
------------------0--0-----|-------5-----5----7s--8--7--|
-----------6g7-------------|-------5-----5--------------|
-----7-------7----------0--|----------------------------|
--------x------------x-----|----------x-----------------|
--7-----x----7-------x-----|--3g5--L--x--5--------------|


  E  E  E    Q    E  E   E      E  E  E  Q    E  E  E   
------------------5----------|-----------0-------------|
-----------5g7----7----------|--3--------3----3--2--3--|
------------------5-----(0)--|-----4----------4--------|
-----7-----------------------|-------------------------|
--5-----x----5-------x-------|--------x----------x-----|
--------x------------x-------|--3-----x--3-------x-----|


  E  E  E  Q    E  E   E      E  E  E    Q    E  E  E   
-----------2----0--0-------|------------------0--------|
-----------3----3--3-------|--2--------2g3----3-----2--|
-----4-----4---------------|--3---------------3-----3--|
----------------------(0)--|-----2---------------------|
--------x----------x-------|--------x------------x-----|
--3-----x--3-------x-------|--2-----x----2-------x-----|


  E  E  E    Q    E  E   E      E  E  E  E  E  S S E  E   
------------------0----------|---------------------------|
-----------2g3----3----------|-------------------0-------|
------------------3-----(0)--|-----2-----2--2---------2--|
-----2-----------------------|---------------------------|
--------x------------x-------|--2-----x-----2--2---x-----|
--2-----x----2-------x-------|--------x------------x-----|


                                 ^                  
  E  E  E  E  E  S S E   E       W                  
-----------------------------|---------------------|
-------------------0---------|---------------------|
-----2-----2--2--------------|--(4)----------------|
-----------------------------|--(5)----------------|
--2-----x-----2--2---x--(2)--|--(5)----------------|
--------x------------x-------|--(3)----------------|


  E.    T    T   S E.   E  E  E  E       E  E  E  E  E  E  E  E   
---------------------------------0--||---2--2--2--2--2--------0--|
---------------------------3--3-----||---3-----3--------3-----3--|
------------------------------------||*--------4--------4-----3--|
--L---------------------------------||*--------------------------|
--L-----x----x---x------x-----------||---------x-----------x-----|
--L---(12)-(12)-12-L\---x-----------||---3-----x-----3-----x--2--|


  E  E  E  E  E  E   E   E     E  E  E  E  E  E  E  E   
--L--0-------------------0--|--2--2--2--2--2--------0--|
--L--3-----------3--(3)-----|--3-----3--------3--------|
--L--3-----------3--(3)-----|--------------------------|
--------------2-------------|--------------------------|
--------x------------x------|--2-----x-----2-----x--0--|
--L-----x--2---------x------|--------x-----------x-----|


  E  S  S E  E  E  E  E  E     E  E  E  E  E  E  E  E   
-----0h-2-------------2--0--|--2--2--2--2--2--------0--|
-------------3-----3--3-----|--3-----3--------3-----3--|
-------------2-----2--2-----|--------4--------4-----3--|
----------------0-----------|--------------------------|
--0-------x-----------x-----|--------x-----------x-----|
----------x-----------x-----|--3-----x-----3-----x--2--|


  E  E  E  E  E  E   E   E     E  E  E  E  E  E  E    E   
--L--0-------------------0--|--2--2--2--2--2--3-----5g7--|
--L--3-----------3--(3)-----|--3-----3--------3-----5g7--|
--L--3-----------3--(3)-----|----------------------------|
--------------2-------------|-------------------------0--|
--------x------------x------|--2-----x-----2-----x-------|
--L-----x--2---------x------|--------x-----------x-------|


  E  E  E  Q     E  E  E       E  E  E  Q     E  Q       W                  
--L--5-----2p----0-----0---||--L--5-----2p----0-------|-------------------||
--L--5-----3--------3------||--L--5-----3--------3----|--L----------------||
--------------------------*||--------------------2----|--L----------------||
--L-----------------------*||--L----------------------|-------------------||
--------x------------------||--------x----------------|-------------------||
--------x------------------||--------x----------------|-------------------||




Duration Legend
---------------
W - whole
H - half
Q - quarter
E - 8th
S - 16th
T - 32nd
X - 64th
. - note dotted
|-n-|  - n-tuplets


Tablature Legend
----------------
L - tied note
x - dead note
g - grace note
(n) - ghost note
> - accentuded note
NH - natural harmonic
AH - artificial harmonic
TH - tapped harmonic
SH - semi harmonic
PH - pitch harmonic
h - hammer on
p - pull off
b - bend
br - bendRelease
pb - preBend
pbr - preBendRelease
brb - bendReleaseBend
\n/ - tremolo bar dip
\n - tremolo bar dive
-/n - tremolo bar Release up
/n\ - tremolo bar inverted dip
/n - tremolo bar return
-\n - tremolo bar Release down
S - shift slide
s - legato slide
/ -  slide into from below or out of upwards
\ -  slide into from above or out of downwards
~ - vibrato
W - wide vibrato
tr - trill
TP - tremolo picking
T - tapping
S - slap
P - pop
< - fade in
^ - brush up
v - brush down
I want to post or [tab]
guest
You may want to rate the tab now too:
select rating
Please do not post tabs as comments. Select "correction" instead!