Oops, an error
Loading. Please wait.

This Love Tab

28,463 views 49 this week
3 commentsread comments
1 2 3 4 5
excellent!
x 6
add to favorites launch autoscroll
font size
0
reset
Autoscroll
+/-
esc
set tempo
stop
Contributor
WARNING: You are trying to view
                                    content from Ultimate-Guitar.com
                                    in an unauthorized application,
                                    which is prohibited.

                                    Please use an official Ultimate
                                    Guitar Tabs application for iPhone,
                                    iPad or Android to access legitimate
                                    chords, guitar, bass, and drum tabs
                                    from Ultimate-Guitar.com database.

                                    Type "ultimate guitar tabs" in Apple
                                    App Store's or Android Market's
                                    search to find the application.
Hi guys, that's Tab of (Maroon 5) This Love arranged by Sungha Jung.
Enjoy:)


|-----------------------------------------------------------------------|
|-----------------------------------------------------------------------|
|-------------------------------------------------------10----10---10---|
|-----------9---9---9-----------10----10---10---------------------------|
|------------------------------------------------10-9-8-----x----8----x-|
|-x-4-x-6-7---x---7---x--7-10-8----x-----8----x-------------------------|

--------------------------|
--------------------------|
----------7----7----7-----|
--------------------------|
--8--6--5----x---5-----x--|
--------------------------|

|----------7---7---7-----------8----8-----8----|
|----------0---0---0-----------8----8-----8----|
|----------7-------7-----------8----------8----|
|----------------------------------------------|
|----------------------------------------------|
|---4--6-7---x---7---x--7-10-8----x-----8----x-|

----------8-----8----8-------------7----7---7-----|
----------9-----9----9-------------6----6---6-----|
----------8----------8-------------7--------7-----|
--------------------------------------------------|
---10-9-8-----x----8----x--8--6--5----x---5-------|
--------------------------------------------------|

|---------7---7---7---7-----7-------8-8---x-x-x-x-|
|---------0---0---0---0-0---0-0-----8-8---x-x-x-x-|
|---------7-----------7-----7-------8-8---x-x-x-x-|
|-------------------------------------------------|
|-------------------------------------------------|
|-4--6-7------x-------7---x-7---x---8-8-----------|

--8-8-----10---10/11--10----8----x-x-x-x--8-8---8-8------8-7-7---|
---------------------------------x-x-x-x-------------------6-6---|
---------------------------------x-x-x-x-------------------7-7---|
-----------------------------------------------------------------|
--------------------------8---------------8---x-8-8-x------------|
--8-----x---8-----------------x----------------------------------|

|------------------7---7---7---7-----7-------8-8---x-x-x-x-|
|------------------0---0---0---0-0---0-0-----8-8---x-x-x-x-|
|------------------7-----------7-----7-------8-8---x-x-x-x-|
|----------------------------------------------------------|
|----------------------------------------------------------|
|-x-x-x-x-x-4-x-6-7----x-------7---x-7---x---8-8-----------|

-8-8-----10---10/11--10----8---|
-------------------------------|
-------------------------------|
-------------------------------|
-------------------------8-----|
-8-----x---8-----------------x-|

-x-x-x-x--8-8---8-8----8-7-7-------------|
-x-x-x-x-----------------6-6-------------|
-x-x-x-x-----------------7-7-------------|
-----------------------------------------|
----------8---x-8-8-x--------------------|
-------------------------------x-x-x-x-x-|

|------------------------------------------------------|
|---------8-----8---8---8------------8-8--8-----8------|
|---------8---------8------8----8------8----8----------|
|---------10-----------------------8---8----------10/8-|
|---------------8-8-x-------------6-------------8------|
|-4-6-8-8-x-----------5/6----x---------x--8-8-x--------|

---------------------------------------------------------------------|
-8-6------6----------------------8----8-----8----8--------6-8h---6-6-|
------8------8----8--------------8----------8-------8--------------8-|
---------------------------------10----------------------------6---6-|
-------------6--6--x--5/6-------------8-8---x-----------------6------|
-5-6----x-------------------8-8--x-------------5/6-----x-----------x-|

------------------------------------------|
-8-----8----------8--6---4----6--4--3---0-|
---8--------------------------------------|
------------10/8--------------------------|
-------8-------------4-----x-----3----x---|
-8-8-x------------------------------------|

|------------------------------------|
|------------------------------------|
|-----7---7---7---------8----8----8--|
|-----6---6---6---------10---10---10-|
|------------------------------------|
|-4/7---x---7----7-10-8----x----8----|


---------8----8-------8---------7---7--7-|
---------9----8-9h----9---------6---6--6-|
---------8---------8------------7------7-|
-----------------------------------------|
-10-9-8-----x------------8-6-5----x---5--|
-----------------------------------------|

------7-7---7-7/8/7-5--7/8/7-5----|
------0-0-----------------------0-|
------7---------------------------|
------6---------------------------|
------x---------------------------|
-4--6-7---x-----------------------|


----8--8---8----8---8----8--------------------8----|
----8--8---8----8---8----8-9h---9-----10----9-8-9h-|
----8------8--------8----8------------------8-8----|
---------------------------------------------------|
-----------------------8------x----8--8---x--------|
4/8--x---8----x---8--------------------------------|

----7---7----7--|
----6---6----6--|
----7--------7--|
----------------|
-5----x----5----|
----------------|

|------7-7------------------------------------------|
|------0-0----0--0--0--1-1-x-x-x-x---1-1-3/4--3---1-|
|------7-------------------x-x-x-x---------------1--|
|------6---------0-----1-1-x-x-x-x-------1------3---|
|------x---------------3-------------3--------------|
|-4--6-7---x---x---x--------------------------------|

-------------------------------------|
-x-x-x-x-1-1-x-1-x-1-x-1-x-0-x-0-x---|
-x-x-x-x-------------------------x---|
-x-x-x-x-3-----3---3-------------x---|
-------------------------------2---x-|
-------------------------------------|

---------3-x-1-x------1-x-3-x---------------------|
-----------------4-x-----------4-x-4-x-3-4h-1-x-x-|
-----------------0-------------0--------------x-x-|
----------------------------------------------x-x-|
-0-x-1-2------------2-------------------3---------|
--------------------------------------------------|

-6-6---3-1----1-3h--3-----------------------------------|
-x---------4h-----------1-1-x-1-x-1-x-1-x-0-x-0-x-x-x---|
-x----------------------------1---1-------------x-x-x---|
---------3--------x-x---3-3---3---3-------------x-x-x---|
-----x----------------------------------------2->>>>>>9-|
------------------------------------------------------x-|

|--------------------------------------------------------|
|-----------8-----8---8---8------------8-8--8-----8------|
|-----------8---------8------8----8------8----8----------|
|-----------10-----------------------8---8----------10/8-|
|-----------------8-8-x-------------6-------------8------|
|-4-x-6-8-8-x-----------5/6----x---------x--8-8-x--------|

---------------------------------------------------------------------|
-8-6------6----------------------8----8-----8----8--------6-8h---6-6-|
------8------8----8--------------8----------8-------8--------------8-|
---------------------------------10----------------------------6---6-|
-------------6--6--x--5/6-------------8-8---x-----------------6------|
-5-6----x-------------------8-8--x-------------5/6-----x-----------x-|

------------------------------------------|
-8-----8----------8--6---4----6--4--3---0-|
---8--------------------------------------|
------------10/8--------------------------|
-------8-------------4-----x-----3----x---|
-8-8-x------------------------------------|

|----------------------------------<0>---------8---8---8------------7---7--7-|
|----------------------------------<0>---------8---8---9-----9------6---6--6-|
|-----7---7----7-------------------<0>---------8-------------8------7------7-|
|-----6---6----6--------10---10----------------------------------------------|
|-----------------------10---10---------10-9-8---x---8---x-8-x--6-5---x---5--|
|-4/7---x----7---7-10-8----x----8h-------------------------------------------|

----------------------------------8---8---------------|
----------------------------------8---8---------------|
----------------------------------8---8---8-10h-8-7/8-|
-------7---7----7/8/7-5-7/8--8------------------------|
-------6---6------------------------------------------|
-4-6-7---x---x--7/8-------------8---x---x-------------|

---8---8----8------8-8-------7---7--7-|
---9---9----9-11h--9-9-9h----6---6--6-|
------------8------8---------7------7-|
--------------------------------------|
-8---x----8------x--------5----x---5--|
--------------------------------------|

----------------------------------------------------------|
-------8--8----------------8-8-6-6--6----8-8-6-6-----6/8--|
-------8----10-10-8-10-----8-------8-----8-------8-8------|
-------10-------------------------------------------------|
-----8---------8---------6-------6------------------------|
-4-6-----------------------------------6-------6--------8-|

----------------------|
----------------------|
----------------------|
-x-x-x-10/9--9/10-x-x-|
-x-x-x------------x-x-|
-x-x-x-8/7---7/8--x-x-|

-----------------------------------------------------|
---8--8----------------8-8-6-6---6----8--8-8--6----8-|
---8----10-10-8-10-----8-------8----8----8-8--8----8-|
---10------------------------------------------------|
-8---------8---------6-------6-----------------------|
--------------------------------------6--x-x--6-8--x-|

------4--4--4-4--3-3--3--3-|
------4--4--4-4--3-3--3--3-|
------5--5--5-5--4-4--4--4-|
-x-x--6--6--6-6-------5--5-|
-x-x--6--6--6-6-------5--5-|
-x-x--4--4--4-4-------3--3-|

|------------------------------------------------------|
|---------8-----8---8---8------------8-8--8-----8------|
|---------8---------8------8----8------8----8----------|
|---------10-----------------------8---8----------10/8-|
|---------------8-8-x-------------6-------------8------|
|-----4/8-x-----------5/6----x---------x--8-8-x--------|

---------------------------------------------------------------------|
-8-6------6----------------------8----8-----8----8--------6-8h---6-6-|
------8------8----8--------------8----------8-------8--------------8-|
---------------------------------10----------------------------6---6-|
-------------6--6--x--5/6-------------8-8---x-----------------6------|
-5-6----x-------------------8-8--x-------------5/6-----x-----------x-|

--------------------------------------------|
-8-----8----------8-6------6----------------|
---8-------------------8------8----8--------|
------------10/8----------------------------|
-------8----------------------6--6--x--5/6--|
-8-8-x------------5-6----x------------------|

---------------------------------------------------------------------------|
-----8-----8---8---8------------8-8-8-----8-------8-6------6---------------|
-----8---------8------8-8--8------8---8----------------8------8----8-------|
-----10-----------------------8---8---------10/8---------------------------|
-----------8-8-x-------------6--------------------------------6--6--x--5/6-|
-8-8-x-----------5/6----x---------x-8-8-x---------5-6----x-----------------|

-----------------------------------------------------------|
------8----8-----8----8--------6-8----6-6--8-----8---------|
------8----------8-------8--------------8----8-------------|
------10----------------------------6---6-------------10/8-|
-----------8-8---x-----------------6-------------8---------|
-8-8--x-------------5/6-----x-----------x--8-8-x-----------|

----------4----------3---|
-8--6---4-4--6--4--3-3-0-|
-------------------------|
-------------------------|
----4-----x-----3----x---|
-------------------------|

------------------------------------------------|
-----0---0------1---1-------3---3------3---3----|
------------0---1---1--0-----------3---3---3--0-|
-----0---0-0--3---x---0-----0---0-0--1---x---0--|
--3----x-----------------1----x-----------------|
------------------------------------------------|
                                                2x
||------------------------------------------------||
||.---1---1------1---1-------3---3------3---3----.||
||-----------0---1---1--0-----------3---3---3--0--||
||.---1---1-0--3---x---0-----0---0-0--1---x---0--.||
||--3---x-----------------1----x------------------||
||------------------------------------------------||

--------------------------------------1---|
----1---1------1---1-------3---3------3---|
-----------0---1---1--0-----------3---3---|
----1---1-0--3---x---0-----0---0-0----1---|
--3---x-----------------1----x------------|
------------------------------------------|
comments
print report bad tab
3 comments total.
0 reply
thexsevastian wrote on November 4 2011, 12:40 pm

I require the tuning.

0 reply
Nate_T wrote on November 5 2011, 03:22 am

standard tuning

0 reply
guitarhero_15 wrote on February 26 2012, 05:47 am

hey bro ,how bout tabbing the with you of sungha.....by the way nc tab....:D

I want to post or [tab]
guest
You may want to rate the tab now too:
select rating
Please do not post tabs as comments. Select "correction" instead!