Oops, an error
Loading. Please wait.

You Exist In My Song Tab

ver1
ver1

Whole song

Interactive

More versions @911Tabs.com
6,759 views 120 this week
no commentswrite comment
1 2 3 4 5
excellent!
x 2
Autoscroll
+/-
esc
set tempo
stop
Contributor
Hey! There's an official Ultimate Guitar app which is ideal
for learning songs when you're away from computer. Get the app
WARNING: You are trying to view
                                    content from Ultimate-Guitar.com
                                    in an unauthorized application,
                                    which is prohibited.

                                    Please use an official Ultimate
                                    Guitar Tabs application for iPhone,
                                    iPad or Android to access legitimate
                                    chords, guitar, bass, and drum tabs
                                    from Ultimate-Guitar.com database.

                                    Type "ultimate guitar tabs" in Apple
                                    App Store's or Android Market's
                                    search to find the application.
You Exist in My Song                               
Sungha Jung
Capo 2
yuji812

                  ^            ^                                 
                               |--3--|                 |--3--|   
       E  E  Q    Q    Q       E  E  E  E  E    Q      E  E  E   
E||----------0--------------|-----------------------------------|
B||---------------3---------|--1--0-----------------------------|
G||--0g2----------0----0----|--0-----0-----0--0g2---------0--2--|
D||-------3-----------------|-----------2-----0g2----0g2--------|
A||-------------------------|--3--------2-------0---------------|
E||----1----------3---------|-----------------------------------|


                                  ^                          
          |--3--|                                            
  E  E    E  E  E  E  E  E  E     E  E  E  S  S E  E  E  E   
-------------------------------|----------------------0-----|
-------------------------------|----------------------------|
-------------0--2--------------|--5-----4-------7-----------|
--------1g2--------------5-----|--5--5-----5s-7----7-----0--|
--3----------------5--------0--|--0-------------------------|
--1--1-------------3--3--------|----------------7-----------|


                                                    ^       ^         
                                                            |--3--|   
  S S S S S S S S S S S S S S S S    S S S S S S  S S E  E  E  E  E   
------0---0---0-3---0-0---0---0-3-|----0-0---0-5s-7-3-------3--1--0--|
--------3---3-----------3---3-----|--------3--------3-------3--------|
----0-----------------------------|-------------------------0--------|
----------------------------------|----------------------0-----------|
--3---------------2---------------|--0-------------------------------|
----------------------------------|-------------------3--------------|


         |--3--|                                                   
  E  S S E  E  E  S E  S E  E     E  S S  S S E  E  E   E    S  S  
------------3--3--3-0-------3--|--3----3s-5---0-------------------|
--3--1-1---------------1-------|-----------------3-----(3)--(3)---|
-------2---------------0-------|-----2------0----------(0)--(0)-0-|
-------------------------2-----|--0-----------------0--(0)--------|
-------------------------------|-----------------------(x)--(x)---|
--1------1--------0------------|-----------------3-----(x)--(x)---|


                                                           ^         
                                                           |--3--|   
  S S S S S S S S S S S S S S S S    E  S S S  S S S E  E  E  E  E   
------0---0---0-3---0-0---0---0-3-|--7--8---3p-0---3-------3--5--8--|
--------3---3-----------3---3-----|--5---------------------0--------|
----0-----------------------------|------------------------0--------|
----------------------------------|--------------0------0-----------|
--3---------------2---------------|--0----0-------------------------|
----------------------------------|------------------3--------------|


                                                             ^      
   E  S  S  S  E   S  S E  S E  E      E   E  E   E   E   E  E  E   
--10--8----------------------------|-------------------------------|
--------10----10-----10-8----8-----|-------------------------8-----|
-----------------------------------|---7------9------10------9-----|
-----------10-----10------------0--|----------------------------0--|
---8------------------8----8-------|--10--10-----10------10--------|
-----------------------------------|-------------------------------|


                                                               ^         
                                         |---3--|              |--3--|   
   E   E   S   S  S  S  E   E   E  E     E   E  E  E  E  E  E  E  E  E   
----------10s-12----10----------------|--8------------0--0-----0--3--5--|
--10---------------------------12-----|-----12--8-----------------------|
--------------------------------------|------------7-----5-----5--------|
------10---Ls-12-12--------12------0--|---------------------5-----------|
---8-------------------10-------------|---------------------------------|
--------------------------------------|--8---------7-----5--------------|


        ^                                            ^                
        |--3--|         |--3--|                                       
  E  E  E  E  E  E  S S E  E  E     E  E  E   S   S  E  E   E    E    
--------0--3--5--3----0-0--------|--0-----0--(0)-----0-----(0)-------|
--1-----1------------------3--1--|--1-----1--(1)-(1)-1-----(1)-------|
--2-----2------------------------|--------0--(0)-(0)-0-----(0)--(0)--|
-----3--------------0------------|-----2--2------(2)-----------------|
---------------------------------|--3--------(x)-----1--1--(x)-------|
--1--------------3---------------|-----------(x)-----------(x)-------|


                                         ^                     ^         
                                         |---3--|              |--3--|   
   E   E   S   S  S  S  E   E   E  E     E   E  E  E  E  E  E  E  E  E   
----------10s-12----10----------------|--8---------0--5--5-----0--3--5--|
--10---------------------------12-----|-----12--8-----------------------|
--------------------------------------|--9---------------------5--------|
------10---Ls-12-12--------12------0--|---------------------5-----------|
---8-------------------10-------------|---------------------------------|
--------------------------------------|--8---------7-----5--------------|


        ^                                                            
        |--3--|           |--3--|                                    
  E  E  E  E  E  E  S S   E  E  E     E    E  E.  E  S  S  S S E  S  
--------0--3--5-------0-3g5--3--0--|--------------0--0-(0)-0-0------|
--1-----1--------1-----------------|-----3g1--1---1--1-(1)-1-1------|
--2--------------------------------|----------0---0--0-------0------|
-----3--------------0--------------|----------2--------------2------|
-----------------------------------|--3-----------------------------|
--1--------------3-----------------|--------------------------------|


                                                             |--3--|   
  S S S S S S S S S S S S S S S S    S S S S S S  S S S E  S E  E  E   
------0---0---0-3---0-0---0---0-3-|----0-0---0-3s-7-L-5-3--3-3--1--0--|
--------3-3-3-----------3-3-3-----|--------3------------0--0-0--------|
----0-----0---------------0-------|-----------------0--------0--------|
----------------------------------|-----------------------------------|
--3-------x-------2-------x-------|--0-------x---------------x--------|
----------x---------------x-------|----------x--------3------x--------|


  E  S S  S  E  S S E  S E   S   S     E  S S  S S S S E  S  S   S   S   E    
-------------3----3-0---------------|--3----3s-5-L-0-------------------------|
--3--1-1---------------1-1--(1)-----|--3---------------3----(3)--3--(1)--1---|
--2----2-(2)----0------0-0--(0)-(0)-|-----2------0----------(0)--0--(0)--0---|
---------(3)-------------2------(2)-|--0-------------0----0------------------|
----------x--------------x--(x)-----|---------------------------(x)-----(x)--|
--1-------x-------0------x--(x)-----|------------------3--------(x)-----(x)--|


  E  S S S S S S E  S S S S S S    E  S S E   S S E  E  S S S S  
-----0-0------------0-0---------|--3--0-----------3--0----------|
--3--------3-----3--------3-----|--1--1---3~--1---0-----3-0---0-|
--0--------0---0-0--------0---0-|---------0---0---------0-------|
--------------------------------|-----------------------2---2---|
--3------x---x---2------x---x---|--0----0-------0-------x-------|
---------x---x----------x---x---|-----------------0-----x-------|


  ^         ^                    ^     ^     ^            
  E  S S E  E.  E  S S  S  E     E  E  E  E  E  E  E  E   
-------0-0--0---0--0-0-(0)-0--|--------0-----1-----3-----|
--1----1-1--1---1--1-1-(1)-1--|--3-----3-----0-----------|
--2------2--2---2----2-----2--|--0-----0--------0--------|
-----3------3-----------------|-----0-----0-----------0--|
------------------------------|--------------------------|
--1---------1-----------------|--3-----------------------|


  ^                                                                  
  E  E  E  E  E  S  S Q        E   E   S   S  S  S  E   E   E   E    
--------0-----1-------3----|----------10s-12----10------------------|
--3-----3------------------|--10---------------------------12-------|
--0-----------2--2s-4-L----|-----------------------------------(0)--|
-----0-----0---------------|------10---Ls-12-12--------12------(0)--|
---------------------------|---8-------------------10----------(x)--|
--3------------------------|-----------------------------------(x)--|


                        ^                 ^                         
  |---3--|              |--3--|           |--3--|         |--3--|   
  E   E  E  E  E  E  E  E  E  E     E  E  E  E  E  E  S S E  E  E   
--8------------0--0-----0--3--5--|--------0--3--5--3----0-0--------|
-----12--8--------------0--------|--1-----1---------------3--3--1--|
------------7-----5-----5--------|--2-----2---------------0--------|
---------------------5-----------|-----3--------------0------------|
---------------------------------|------------------------x--------|
--8---------7-----5--------------|--1--------------3------x--------|


                     ^                                                         
  E  E   E    S   S  E  E   E    E       E   E   S   S  S  S  E   E   E   E    
--0------0---(0)-----0-----(0)-------|----------10s-12--L-10------------------|
--1------1---(1)-(1)-1-----(1)-------|--10---------------------------12-------|
---------0---(0)-(0)-0-----(0)--(0)--|-----------------------------------(0)--|
-----------------(2)-----------------|------10---Ls-12-12--------12------(0)--|
--3--3--(x)--(x)-----1--1--(x)-------|---8-------------------10----------(x)--|
--------(x)--(x)-----------(x)-------|-----------------------------------(x)--|


  ^                     ^                 ^                           
  |---3--|              |--3--|           |--3--|           |--3--|   
  E   E  E  E  E  E  E  E  E  E     E  E  E  E  E  E  S S   E  E  E   
--8---------0--5--5-----5--3--5--|--------0--3--5-------0-3g5--3--0--|
-----12--8--------------0--------|--1-----1--------1-----------------|
--9---------7-----------5--------|--2--------------------------------|
---------------------5-----------|-----3--------------0--------------|
---------------------------------|-----------------------------------|
--8---------7-----5--------------|--1--------------3-----------------|


                                 ^            ^                  
  E    E  E.  E  S S S S S E     E     E.  E  E.  S S S S  S  S  
--------------0--0-0-0-0-0-0--|--5--8g10---5--5-----------------|
-----3g1--1------1-1-1-1-1-1--|--6---------6--6---8-8---6-----6-|
----------0--------0-0-0-0-0--|--7------------7-----7---7-------|
----------2------------2-2-2--|---------------------------------|
--3---------------------------|-----------------------x---(x)---|
------------------------------|--6------------6-------x---(x)---|


                     ^                              ^         
                     |--3--|                        |--3--|   
  E  S S E.  E  S E  E  E  E     E  S S E.  E  S E  E  E  E   
-----5-5-5---5--5-5--8--5-----|-------5-----5--5-5--8--5-----|
--8----6-6---6--6-6--6-----8--|--8--6-6-6---6--6-6--6-----8--|
---------0-----------0--------|--7------7---7----7-----------|
------------------------------|---------x--------------------|
--8------x--------------------|---------x--------x-----------|
---------x--------------------|--6---------------x--6--------|


                                   ^                     ^                 
  E  S S E.  E  E  S S S S  S      E.   S  S   S   S  S  E  S S S S S  S   
-------5-5---5--5--5-5-5-5-----|--10---10-----10s-12-----9--9-9-----7-----|
--8--5-5-5---5--5--5-5-5-5-----|---0----0-(0)------------0--0-0-----------|
-----6---6---6--7--7-7-7---(7)-|---6----6-(6)--------(6)-6----6-----------|
---------x---------------------|---7---------------------7------------(0)-|
--0----------------------------|---0---------------------0------x-0-------|
---------x---------------------|--------------------------------x---------|


                                            ^               ^     ^         
                                            |---3--|              |--3--|   
   E   E   S   S  S  S  E   E   E   E       E  E   E  E  E  E  E  E  E  E   
----------12s-14----12------------------|--10--9---------------------5--7--|
--12---------------------------14-------|---------10-----7--7-----7--------|
-----------------------------------(0)--|--11---------9-----7-----7--------|
------12---Ls-14-14--------14------(0)--|-------------------7--7-----------|
--10-------------------12-----------x---|----------------------------------|
------------------------------------x---|--10---------9-----7--------------|


                                                ^                             
          |--3--|         |---3---|                                           
  E  E    E  E  E  E  E   E   E   E      E  E   E   S S  E   S  S  E   S  S   
-------------5--7--5-----13--12------|---------14--14-----------------12-----|
--3-----5g7----------------------15--|---------15--15-------12----15---------|
--4----------------------------------|--14-----14--14---14-----14--------(0)-|
-----5----------------0--------------|---0--0---0-----0----------------------|
-------------------------------------|--------------x------------------------|
--3----------------5-----------------|--------------x------------------------|


           ^                                ^               ^     ^         
                                            |---3--|              |--3--|   
   E   E   E   S  S     E   E   E   E       E  E   E  E  E  E  E  E  E  E   
--10------10--10-10---------------------|--10--9---------7--7--------5--7--|
----------12--12----12g14---L--14-------|---------10--7-----7-----7--------|
----------12--12-------------------(0)--|--11---------------7-----7--------|
------12-------------------14------(0)--|----------------------7-----------|
--10-----------x----10g12---L-------x---|----------------------------------|
---------------x--------------------x---|--10---------9-----7--------------|


          |--3--|          |----3---|                                 
  E  E    E  E  E  E  E    E  E  S  S    E    S S E.  E  E  S  E  E   
-------------5--7--------5g7--5--0h-2-|-----2g0-------0--0--0h-2-----|
--3-----5g7---------------------------|---------3-3---3--3--3--------|
--4----------------7------------------|-----------2---2--2--2--------|
-----5--------------------------------|--0--------0---0--------------|
--------------------------------------|---------------------------x--|
--3----------------5--5---------------|---------------------------x--|


                                            ^               ^     ^         
                                            |---3--|              |--3--|   
   E   E   S   S  S  S  E   E   E   E       E  E   E  E  E  E  E  E  E  E   
----------12s-14----12------------------|--10--9---------7--7--------5--7--|
--12---------------------------14-------|---------10--------7-----7--------|
----------------------------------------|--11---------9-----7-----7--------|
------12---Ls-14-14--------14------(0)--|----------------------7-----------|
--10-------------------12---------------|----------------------------------|
----------------------------------------|--10---------9-----7--------------|


          |--3--|          |----3---|                           |--3--|   
  E  E    E  E  E  E  E    E  E  S  S    E    S S E.  E  S E    E  E  E   
-------------5--7--------5g7--5--0h-2-|-----2g0-------0--0-0-------5--7--|
--3-----5g7---------------------------|---------3-3---3--3-3--5g7--------|
--4----------------7------------------|-----------2---2--2-2-------------|
-----5--------------------------------|--0--------0---0------------------|
--------------------------------------|----------------------------------|
--3----------------5--5---------------|----------------------------------|


          |--3--|                                     
  E  E    E  E  E  E  E    E  E       S  T  T Q.      
-------------5--7--------5g7--5--|--0g2s-3s-2-L------|
--3-----5g7----------------------|-------------------|
--4----------------7-------------|-------------------|
-----5---------------------------|-------------------|
---------------------------------|-------------------|
--3----------------5--5----------|-------------------|


  ^                               ^               ^          
  S E  S E.  E  E  S S S S  S     E  S S S S E    H          
--0------0---0--2--2-2-2-2-----|--3--3-2-2-2-2/---9--------||
--3-3----3---3--3--3-3-3-3-(3)-|--3--3-3-3-3-3/--10--------||
-------2-2---2--2----2---2-(2)-|--2--2---2---2/---9--------||
--0------------------0---------|--0----------0----0--------||
---------x---------------------|---------------------------||
---------x---------------------|---------------------------||




Duration Legend
---------------
W - whole
H - half
Q - quarter
E - 8th
S - 16th
T - 32nd
X - 64th
. - note dotted
|-n-|  - n-tuplets


Tablature Legend
----------------
L - tied note
x - dead note
g - grace note
(n) - ghost note
> - accentuded note
NH - natural harmonic
AH - artificial harmonic
TH - tapped harmonic
SH - semi harmonic
PH - pitch harmonic
h - hammer on
p - pull off
b - bend
br - bendRelease
pb - preBend
pbr - preBendRelease
brb - bendReleaseBend
\n/ - tremolo bar dip
\n - tremolo bar dive
-/n - tremolo bar Release up
/n\ - tremolo bar inverted dip
/n - tremolo bar return
-\n - tremolo bar Release down
S - shift slide
s - legato slide
/ -  slide into from below or out of upwards
\ -  slide into from above or out of downwards
~ - vibrato
W - wide vibrato
tr - trill
TP - tremolo picking
T - tapping
S - slap
P - pop
< - fade in
^ - brush up
v - brush down
comments
We did not receive enough feedback on this tab! Please rate:
print report bad tab
1 2 3 4 5
I want to post or [tab]
guest
You may want to rate the tab now too:
select rating
Please do not post tabs as comments. Select "correction" instead!