Oops, an error
Loading. Please wait.

Zeldas Theme Tab

ver1
ver1

Whole song

Interactive

More versions @911Tabs.com
12,200 views 63 this week
no commentswrite comment
1 2 3 4 5
accurate
x 5
Autoscroll
+/-
esc
set tempo
stop
Contributor
Hey! There's an official Ultimate Guitar app which is ideal
for learning songs when you're away from computer. Get the app
WARNING: You are trying to view
                                    content from Ultimate-Guitar.com
                                    in an unauthorized application,
                                    which is prohibited.

                                    Please use an official Ultimate
                                    Guitar Tabs application for iPhone,
                                    iPad or Android to access legitimate
                                    chords, guitar, bass, and drum tabs
                                    from Ultimate-Guitar.com database.

                                    Type "ultimate guitar tabs" in Apple
                                    App Store's or Android Market's
                                    search to find the application.
Zelda's Theme
Sungha Jung
yuji812
     ^                                                                        
     Q    Q    E  E  E  E     S  S E  Q    H           Q    Q    E  E  E  E   
E||--5------------0--0--5--|--3p-1-3----------------|--5------------1--1--5--|
B||------------0-----------|---------------0--------|------------1-----------|
G||------------6-----------|---------------2--------|-------2----------------|
D||-------7----------------|----------0-------------|------------------------|
A||--0---------------------|------------------------|------------------------|
E||------------------------|--3---------------------|--1---------------------|


  S  S E  Q    H           E  S S E  S S E  S S S S S S  
--4p-2-4----------------|-------------------------------|
---------------0--------|-------------------------------|
---------------1--------|-------2------2------2---2---2-|
----------2-------------|-------2------2------2---2---2-|
------------------------|--0--0---0--0---0--0---0---0---|
--0---------------------|--x------x------x------x---x---|


  E  S S E  S S E  S S S S  S  S    E  S S E  S S E  S S S S S  S  
---------------------------------|--------------------------------|
---------------------------------|-------------------------0-2s-3-|
-------2------2------2---------2-|--2-----------2----2---2--------|
-------2------2------2---2-------|--2-----------2-----------------|
--0--0---0--0---0--0---0---(0)---|--0--0-0-0--0---0----0----------|
--x------x------x------x---(x)---|---------x----------------------|


  E  S S S  S  S S  E  S  S  S  S  S  S     E  S S  E   S S  E   S S S S  S  S  
--0--------------------------------------|-------------------------------------|
-----------------------------------------|-----------------------------0h-2h-3-|
-----------------------------------------|--2--------------------2---2---------|
-------0---------0h-2--------x-----------|--2-------x--------x---2-------------|
---------0h-2h-4-------------x-----------|---------(3)------(3)----------------|
--3--3-----------------3-(3)-3-(3)-0-(0)-|--1--1-1--1---1-1--1-----1-----------|


  E  S S S  S  S S  E  S  S  S  S  S  S     E  S S E  S S E  S S S S S  S  
--0--------------------------------------|--------------------------------|
-----------------------------------------|-------------------------0-2s-3-|
-----------------------------------------|--2-----------2----2---2--------|
-----------------0h-2--------x-----------|--2-----------2-----------------|
-------2-0h-2h-4-------------x-----------|--0--0-0-0--0---0----0----------|
--0--0-----------------0-(0)-0-(0)-0-(0)-|---------x----------------------|


                             |--3--|                          |--3--|   
  E  S S S  S  S S  E  S  S  E  E  E     E  S S E  S S E  S S E  E  E   
--0--------------------------0--1--3--|--5------5-------------5--3--1--|
-----------------------------0--------|---------1----------------------|
--------------------------------------|-------2------------------------|
-------0---------0h-2-----------------|--------------0------0----------|
---------0h-2h-4-------------x--------|---------x----------------------|
--3--3-----------------3-(3)-x--------|--1--1---x--1---1--1------------|


  E  S S  E  S S E  S S S S  S   S     E  S S  E  S S E  S S E  S S  
--3----1p-0-------------0-0---------|-------0h-1-------------0------|
------------------------0-----------|--3--3---------------------3---|
------------------------0-------(0)-|--0----------------------------|
----------------------------(2)-----|---------------3------3--------|
--3--3-------3-3-3--3-3-x-----------|--1----------1---1--1--------0-|
-----------------x------x-----------|-----------------x-------------|


  E  S  S E  S S E  S S E  S S    E  S S  E  S S E  S S E  E   
----------0--------------------|------------------------2-----|
--1--1h-3-1-------------3--1---|-------2h-4-------------4-----|
--2--2-------------------------|--4--4------------------------|
---------------2------2--------|---------------4------4-------|
--0-------0--0---0--0----------|--2----------2---2--2------x--|
-----------------x-----------0-|-----------------x---------x--|


  E  S S S  S S S E  S S E  S  S    E  S S E  S S E  S S S S S  S  
--0------------------------------|--------------------------------|
----------------0------0---------|-------------------------0-2s-3-|
--------------0------------------|--2-----------2----2---2--------|
-------2-2s-5-----4--4---3--3p-0-|--2-----------2-----------------|
---------x--------x------x-------|--0--0-0-0--0---0----0----------|
--0--0---x--------x------x-------|---------x----------------------|


                             |--3--|                                      
  E  S S S  S  S S  E  S  S  E  E  E     E  S S E  S S E  S S E   S   S   
--0--------------------------0--1--3--|--5------5-------------8----------|
-----------------------------0--------|---------1------------------------|
--------------------------------------|-------2--------------------------|
-------0---------0h-2-----------------|--------------0------0------------|
---------0h-2h-4-------------x--------|---------x----------------(x)-(x)-|
--3--3-----------------3-(3)-x--------|--1--1---x--1---1--1------(x)-----|


                             NH          
  E  S S E   S   S  E  S S   E   S   S   
--7------7-----------------<>0----------|
---------9--(9)------------<>7----------|
---------7--(7)-(7)---------------------|
-------9--------(9)------9--------------|
---------x----------------------(x)-(x)-|
--0--0---x----------0--0--------(x)-----|


  |--3--|  |--3--|                                                             
  E  E  E  E  E  E  E  S S   E   S   S     E  E  E   S   S  E  S S E   S   S   
--1------------------------3g5-------L--|--4-----0-----------------0----------|
--------------------1-------------------|--------0-----------------0----------|
-----------------2----------------------|--------1-----------------1----------|
-----------1--3-------------------------|-----------(2)-----x---------(2)-----|
-----1--3--------------------x--(x)-(x)-|--------x--(2)-(2)-x------x--(2)-(2)-|
--1-----------------1--1-1---x--(x)-----|--0--0--x----------0--0-0-x----------|


  |--3--|  |--3--|                                                             
  E  E  E  E  E  E  E  S S   E   S   S     E  E  E   S   S  E  S S E   S   S   
--1------------------------3g5-------L--|--4-----0----------------------------|
--------------------1-------------------|--------0-----------------2----------|
-----------------2----------------------|--------1----------------------------|
-----------1--3-------------------------|-----------(2)-----x-----------------|
-----1--3--------------------x--(x)-(x)-|--------x--(2)-(2)-x---------(x)-(x)-|
--1-----------------1--1-1---x--(x)-----|--0--0--x----------0--0-0----(x)-----|


  E  S S E  S S E  S S E  S S    E  S S E  S S E  S S E   S   S   
-----------------------1------|--0------0------------------------|
--3---------------------------|--1------1-------------1----------|
------------------------------|---------2-------------2----------|
-------3------3------3------3-|-------2------2------2-2----------|
--1--1---1--1---1--1------x---|--0--0---x--0---0--0---x--(x)-(x)-|
---------x------x---------x---|---------x------x------x--(x)-----|


  E  S S  E  S S E  S S E  E     E  S S S  S S S E  S S E  S S  
------------------------2-----|--0-----------------------------|
-------2h-4-------------4-----|----------------0------0------0-|
--4--4------------------------|--------------0-----------------|
---------------4------4-------|-------2-2s-5-----4--4---3--3---|
--2----------2---2--2------x--|---------x--------x------x------|
-----------------x---------x--|--0--0---x--------x------x------|


  ^                                     ^                                  
  Q    Q    E  E  E  E     S  S E  Q    H           Q    Q    E  E  E  E   
--5------------0--0--5--|--3p-1-3----------------|--5------------1--1--5--|
------------0-----------|---------------0--------|------------1-----------|
------------6-----------|---------------2--------|-------2----------------|
-------7----------------|----------0----0--------|------------------------|
--0---------------------|------------------------|------------------------|
------------------------|--3---------------------|--1---------------------|


  S  S E  Q    H           E  S S E  S S E  S S S S S S  
--4p-2-4----------------|-------------------------------|
---------------0--------|-------------------------------|
---------------1--------|-------2------2------2---2---2-|
----------2-------------|-------2------2------2---2---2-|
------------------------|--0--0---0--0---0--0---0---0---|
--0---------------------|--x------x------x------x---x---|


  E  S S E  S S E  S S S S  S  S    E  S S E  S S E  S S S S S  S  
---------------------------------|--------------------------------|
---------------------------------|-------------------------0-2s-3-|
-------2------2------2---------2-|--2-----------2----2---2--------|
-------2------2------2---2-------|--2----2------2-----------------|
--0--0---0--0---0--0---0---(0)---|--0--0---0--0---0----0----------|
--x------x------x------x---(x)---|---------x----------------------|


  E  S S S  S  S S  E  S  S  S  S  S  S     E  S S  E   S S  E   S S S S  S  S  
--0--------------------------------------|-------------------------------------|
-----------------------------------------|-----------------------------0h-2h-3-|
-----------------------------------------|--2--------------------2---2---------|
-------0---------0h-2--------x-----------|--2-------x--------x---2-------------|
---------0h-2h-4-------------x-----------|---------(3)------(3)----------------|
--3--3-----------------3-(3)-3-(3)-0-(0)-|--1--1-1--1---1-1--1-----1-----------|


  E  S S S  S  S S  E  S  S  S  S  S  S     E  S S E  S S E  S S S S S  S  
--0--------------------------------------|--------------------------------|
-----------------------------------------|-------------------------0-2s-3-|
-----------------------------------------|--2-----------2----2---2--------|
-----------------0h-2--------x-----------|--2-----------2-----------------|
-------2-0h-2h-4-------------x-----------|--0--0-0-0--0---0----0----------|
--0--0-----------------0-(0)-0-(0)-0-(0)-|---------x----------------------|


                             |--3--|                          |--3--|   
  E  S S S  S  S S  E  S  S  E  E  E     E  S S E  S S E  S S E  E  E   
--0--------------------------0--1--3--|--5------5-------------5--3--1--|
--------------------------------------|---------1----------------------|
--------------------------------------|-------2------------------------|
-------0---------0h-2-----------------|--------------0------0----------|
---------0h-2h-4----------------------|---------x----------------------|
--3--3-----------------3-(3)----------|--1--1---x--1---1--1------------|


  E  S S  E  S S E  S S S S  S   S     E  S S  E  S S E  S S E  S S  
--3----1p-0-------------0-0---------|-------0h-1-------------0------|
------------------------0-----------|--3--3---------------------3---|
------------------------0-------(0)-|--0----------------------------|
---------------2------------(2)-----|---------------3------3--------|
--3--3-------3---3--3-3-x-----------|--1----------1---1--1--------0-|
-----------------x------x-----------|-----------------x-------------|


  E  S  S E  S S E  S S E  S S    E  S S  E  S S E  S S E  S  S   
----------0--------------------|------------------------2--2-(2)-|
--1--1h-3-1-------------3--1---|-------2h-4-------------4--4-----|
--2--2-------------------------|--4--4---------------------------|
---------------2------2--------|---------------4------4----------|
--0-------0--0---0--0----------|--2----------2---2--2------x-----|
-----------------x-----------0-|-----------------x---------x-----|


  E  S S S  S S S E  S S E  S  S    E  S S E  S S E  S S S S S  S  
--0------------------------------|--------------------------------|
----------------0------0---------|-------------------------0-2s-3-|
--------------0------------------|--2-----------2----2---2--------|
-------2-2s-5-----4--4---3--3p-0-|--2----2------2-----------------|
---------x--------x------x-------|--0--0---0--0---0----0----------|
--0--0---x--------x------x-------|---------x----------------------|


                             |--3--|                                      
  E  S S S  S  S S  E  S  S  E  E  E     E  S S E  S S E  S S E   S   S   
--0--------------------------0--1--3--|--5------5-------------8----------|
-----------------------------0--------|---------1------------------------|
--------------------------------------|-------2--------------------------|
-------0---------0h-2-----------------|--------------0------0------------|
---------0h-2h-4-------------x--------|---------x----------------(x)-(x)-|
--3--3-----------------3-(3)-x--------|--1--1---x--1---1--1------(x)-----|


                             NH          
  E  S S E   S   S  E  S S   E   S   S   
--7------7-----------------<>0----------|
---------9--(9)------------<>7----------|
---------7--(7)-(7)---------------------|
-------9--------(9)------9--------------|
---------x----------------------(x)-(x)-|
--0--0---x----------0--0--------(x)-----|


  |--3--|  |--3--|                                                             
  E  E  E  E  E  E  E  S S   E   S   S     E  E  E   S   S  E  S S E   S   S   
--1------------------------3g5-------L--|--4-----0-----------------0----------|
--------------------1-------------------|--------0-----------------0----------|
-----------------2----------------------|--------1-----------------1----------|
-----------1--3-------------------------|-----------(2)-----x---------(2)-----|
-----1--3--------------------x--(x)-(x)-|--------x--(2)-(2)-x------x--(2)-(2)-|
--1-----------------1--1-1---x--(x)-----|--0--0--x----------0--0-0-x----------|


  |--3--|  |--3--|                                                             
  E  E  E  E  E  E  E  S S   E   S   S     E  E  E   S   S  E  S S E   S   S   
--1------------------------3g5-------L--|--4-----0----------------------------|
--------------------1-------------------|--------0-----------------2----------|
-----------------2----------------------|--------1----------------------------|
-----------1--3-------------------------|-----------(2)-----x-----------------|
-----1--3--------------------x--(x)-(x)-|--------x--(2)-(2)-x---------(x)-(x)-|
--1-----------------1--1-1---x--(x)-----|--0--0--x----------0--0-0----(x)-----|


  E  S S E  S S E  S S E  S S    E  S S E  S S E  S S E   S   S   
-----------------------1------|--0------0------------------------|
--3---------------------------|--1------1-------------1----------|
------------------------------|---------2-------------2----------|
-------3------3------3------3-|-------2------2------2-2----------|
--1--1---1--1---1--1------x---|--0--0---x--0---0--0---x--(x)-(x)-|
---------x------x---------x---|---------x------x------x--(x)-----|


  E  S S  E  S S E  S S E  E     E  S S S  S S S E  S S E  S S  
------------------------2-----|--0-----------------------------|
-------2h-4-------------4-----|----------------0------0------0-|
--4--4------------------------|--------------0-----------------|
---------------4------4-------|-------2-2s-5-----4--4---3--3---|
--2----------2---2--2------x--|---------x--------x------x------|
-----------------x---------x--|--0--0---x--------x------x------|


                                        ^                                  
  Q    Q    E  E  E  E     S  S E  Q    H           Q    Q    E  E  E  E   
--5------------0--0--5--|--3p-1-3----------------|--5------------1--1--5--|
------------0-----------|---------------0--------|------------1-----------|
------------6-----------|---------------2--------|-------2----------------|
-------7----------------|----------0----0--------|------------------------|
--0---------------------|------------------------|------------------------|
------------------------|--3---------------------|--1---------------------|


                           ^                                     ^         
  S  S E  Q    H           Q    Q    E  E  E  E     S  S E  Q    H         
--4p-2-4----------------|--5------------0--0--5--|--3p-1-3----------------|
---------------0--------|------------0-----------|---------------0--------|
---------------1--------|------------6-----------|---------------2--------|
----------2-------------|-------7----------------|----------0----0--------|
------------------------|--0---------------------|------------------------|
--0---------------------|------------------------|--3---------------------|


                                        ^           ^                  
  Q    Q    E  E  E  E     S  S E  Q    H           W                  
--5------------1--1--5--|--4p-2-4----------------|-------------------||
------------1-----------|---------------0--------|-------------------||
-------2----------------|---------------1--------|--2----------------||
------------------------|----------2-------------|--2----------------||
------------------------|------------------------|--0----------------||
--1---------------------|--0---------------------|-------------------||




Duration Legend
---------------
W - whole
H - half
Q - quarter
E - 8th
S - 16th
T - 32nd
X - 64th
. - note dotted
|-n-|  - n-tuplets


Tablature Legend
----------------
L - tied note
x - dead note
g - grace note
(n) - ghost note
> - accentuded note
NH - natural harmonic
AH - artificial harmonic
TH - tapped harmonic
SH - semi harmonic
PH - pitch harmonic
h - hammer on
p - pull off
b - bend
br - bendRelease
pb - preBend
pbr - preBendRelease
brb - bendReleaseBend
\n/ - tremolo bar dip
\n - tremolo bar dive
-/n - tremolo bar Release up
/n\ - tremolo bar inverted dip
/n - tremolo bar return
-\n - tremolo bar Release down
S - shift slide
s - legato slide
/ -  slide into from below or out of upwards
\ -  slide into from above or out of downwards
~ - vibrato
W - wide vibrato
tr - trill
TP - tremolo picking
T - tapping
S - slap
P - pop
< - fade in
^ - brush up
v - brush down
comments
print report bad tab
I want to post or [tab]
guest
You may want to rate the tab now too:
select rating
Please do not post tabs as comments. Select "correction" instead!