Oops, an error
Loading. Please wait.

Summer Of Love Tab

2,163 views 3 this week
no commentswrite comment
1 2 3 4 5
accurate
x 1
Autoscroll
+/-
esc
set tempo
stop
Contributor
Hey! There's an official Ultimate Guitar app which is ideal
for learning songs when you're away from computer. Get the app
WARNING: You are trying to view
                                    content from Ultimate-Guitar.com
                                    in an unauthorized application,
                                    which is prohibited.

                                    Please use an official Ultimate
                                    Guitar Tabs application for iPhone,
                                    iPad or Android to access legitimate
                                    chords, guitar, bass, and drum tabs
                                    from Ultimate-Guitar.com database.

                                    Type "ultimate guitar tabs" in Apple
                                    App Store's or Android Market's
                                    search to find the application.
It's certainly too few tabs of house songs.

First bar is down x4, second bar is down up x2, etc for every second bar. 

Please listen to the song to get the rhythm right. 

Maybe I'll make a chord version of this song too.



e||-7-7--7-7-|-5-5-5-5-|-3-3--3-3-|-3-3-3-3-| 
B||-8-8--8-8-|-5-5-5-5-|-3-3--3-3-|-3-3-3-3-|
G||-9-9--9-9-|-7-7-7-7-|-5-5--5-5-|-5-5-5-5-|
D||-9-9--9-9-|-7-7-7-7-|-5-5--5-5-|-5-5-5-5-|
A||-7-7--7-7-|-5-5-5-5-|-3-3--3-3-|-3-3-3-3-| 
E||----------|---------|----------|---------|

e||-3-3--3-3-|-5-5-5-5-|-7-7--7-7-|-7-7-7-7-|
B||-3-3--3-3-|-5-5-5-5-|-8-8--8-8-|-8-8-8-8-|
G||-5-5--5-5-|-7-7-7-7-|-9-9--9-9-|-9-9-9-9-|
D||-5-5--5-5-|-7-7-7-7-|-9-9--9-9-|-9-9-9-9-|
A||-3-3--3-3-|-5-5-5-5-|-7-7--7-7-|-7-7-7-7-|
E||----------|---------|----------|---------|


Please send me an e-mail if you find anything wrong with these tabs.

comments
We did not receive enough feedback on this tab! Please rate:
print report bad tab
1 2 3 4 5
I want to post or [tab]
guest
You may want to rate the tab now too:
select rating
Please do not post tabs as comments. Select "correction" instead!