Oops, an error
Loading. Please wait.

Sidewalk Serfer Girl Tab

580 views 1 this week
no commentswrite comment
1 2 3 4 5
please rate
Autoscroll
+/-
esc
set tempo
stop
Contributor
Difficulty
novice
Hey! There's an official Ultimate Guitar app which is ideal
for learning songs when you're away from computer. Get the app
WARNING: You are trying to view
                                    content from Ultimate-Guitar.com
                                    in an unauthorized application,
                                    which is prohibited.

                                    Please use an official Ultimate
                                    Guitar Tabs application for iPhone,
                                    iPad or Android to access legitimate
                                    chords, guitar, bass, and drum tabs
                                    from Ultimate-Guitar.com database.

                                    Type "ultimate guitar tabs" in Apple
                                    App Store's or Android Market's
                                    search to find the application.
Artist:  Super Furry Animals
Album:   Rings Around The World
Year:    2001

                         SIDEWALK SERFER GIRL

  INTRO
     A9
              ^                          ^
     E     E  E  E  E  E  E  E     E  E  E  E  E  E  E  E
E||--------0-----0-----0-----0--|-----0-----0-----0-----0--|
B||-----------0-----0-----------|--------------0-----------|
G||-----------6-----------6-----|--------6-----------6-----|
D||-----------7-----------------|--------7-----------------|
A||--0--------------------------|--0-----------------------|
E||-----------------------------|--------------------------|

1st verse:

A9                                       Ddim
Patty Whitebull fell asleep for 15 years
A9                                          Ddim
Then unexpectedly she woke to joy and tears
A9                                              Ddim
She ordered pizza and then asked about her kids
A9                                               Ddim
They're all grown up now on the reservation grid

[The Ddim chords should be played loudly w/ distortion, while the A chords are quiet. 
tab below]

  1st VERSE
  A9
  E     E  E  E  E  E  E  E     E  E  E  E  E  E  E  E
--------0--------------------|--------------------------|
--------------0-----0--------|--------------------0-----|
-----------6-----6-----------|-----------------6-----6--|
-----------------------7-----|--------------------------|
--------------------------7--|-----7--------7-----------|
--5--------------------------|--5-----0--5--------------|


  Ddim                                              
  E    E  E  E  Q    E  E     E  E  Q    E  E  Q    
---------------------------|------------------------||
-------6--6--6--6----6--6--|--6--6--6----6--6--6----||
-------7--7--7--7----7--7--|--7--7--7----7--7--7----||
-------6--6--6--6----6--6--|--6--6--6----6--6--6----||
-------5--5--5--5----5--5--|--5--5--5----5--5--5----||
---------------------------|------------------------||

And so on...

1st Chorus:

A        G       D/F#
Sidewalk serfer girl
       Fdim        A         D/A
I'd do anything to catch you falling
A         G       D/F#
Slidewalk surfer girl
       Fdim        D/A              Am     D
I'd do anything to be with you, sometimes Oh


2nd Verse: [A Ddim]

Since Patty fell asleep things got so extreme
Surfer boys and girls searching for a dream
Paraglide from space die your bungee best
Set yourself alight whilst famine kills the rest

(the A chords are palm-muted power chords as shown below, and the Ddim are same as in 
1st verse)

     E  E  E  E
A||--7--7--7--7--|...
E||--5--5--5--5--|...

2nd Chorus:

A        G       D/F#
Sidewalk serfer girl
       Fdim        A         D/A
I'd do anything to catch you falling
A         G       D/F#
Sidewalk surfer girl
       Fdim        D/A                Am    D
I'd do anything to be with you, sometimes oh,
    Am      D      Am      D
Sometimes, oh, Sometimes, oh

3rd Verse: [like 2nd]

When Patty's aunts don't know the uncles will have fun
She cruised the streets at night she left home on the run (swell)
She never talks to me cos I'm a major yawn (excuse me)
Return the difference don't retake me, I'm no pawn

Last Chorus:

A         G      D/F#
Sidewalk serfer girl
        Fdim
I'd do anything to (catch you falling)
A        G        D/F#
Slidewalk serfer girl
          Fdim
I'd do anything to (catch you falling)... [repeat A G D/F# Fdim x4]

A
Sidewalk walk walk walk...


Sidewalk serfer girl... [repeat A G D/F# Fdim 4 times as above]

OUTRO: [see tab below]

A5                                 Ddim
(I dream of sidewalk surfer girl)

  A5
  PM PM PM PM PM PM PM PM    PM PM PM PM PM PM PM
  E  E  E  E  E  E  E  E     E  E  E  E  E  E  E  E
--------------------------|-----------------------5--|
--------------------------|-----------------------5--|
--------------------------|--------------------------|
--------------------------|--------------------------|
--7--7--7--7--7--7--7--7--|--7--7--7--7--7--7--7-----|
--5--5--5--5--5--5--5--5--|--5--5--5--5--5--5--5-----|


  Ddim
  E    E  E  E  Q    E  E     E  E  Q    E  E  Q       E  E  E  E  Q    E  E
---------------------------|------------------------|-------------------------|
-------6--6--6--6----6--6--|--6--6--6----6--6--6----|--6--6--6--6--6----6--6--|
-------7--7--7--7----7--7--|--7--7--7----7--7--7----|--7--7--7--7--7----7--7--|
-------6--6--6--6----6--6--|--6--6--6----6--6--6----|--6--6--6--6--6----6--6--|
-------5--5--5--5----5--5--|--5--5--5----5--5--5----|--5--5--5--5--5----5--5--|
---------------------------|------------------------|-------------------------|


                           A
  E  E  Q    E  E  Q       W
------------------------|--0----------------||
--6--6--6----6--6--6----|--2----------------||
--7--7--7----7--7--7----|--2----------------||
--6--6--6----6--6--6----|--2----------------||
--5--5--5----5--5--5----|--0----------------||
------------------------|-------------------||

CHORDS:

Fdim [Fm(b5)]  Ddim [Dm(b5)]     D/A

E||--1------|-------------|-----------||
B||--0------|----6--------|-------3---||
G||--1------|----7--------|-------2---||
D||-(3)-----|----6--------|-------4---||
A||---------|----5--------|-------0---||
E||-(1)-----|-------------|-----------||
comments
We did not receive enough feedback on this tab! Please rate:
print report bad tab
1 2 3 4 5
I want to post or [tab]
guest
You may want to rate the tab now too:
select rating
Please do not post tabs as comments. Select "correction" instead!