Oops, an error
Loading. Please wait.

Its A Hard World Bass Tab

343 views 1 this week
no commentswrite comment
1 2 3 4 5
please rate
add to favorites launch autoscroll
font size
0
reset
Autoscroll
+/-
esc
set tempo
stop
Contributor
Difficulty
advanced
WARNING: You are trying to view
                                    content from Ultimate-Guitar.com
                                    in an unauthorized application,
                                    which is prohibited.

                                    Please use an official Ultimate
                                    Guitar Tabs application for iPhone,
                                    iPad or Android to access legitimate
                                    chords, guitar, bass, and drum tabs
                                    from Ultimate-Guitar.com database.

                                    Type "ultimate guitar tabs" in Apple
                                    App Store's or Android Market's
                                    search to find the application.
-------------------------------------------------------------------------------
                         It's a Hard World - Supertramp
-------------------------------------------------------------------------------

Tabbed by: TBone142
e-mail: tbone142@freemail.hu

Tuning: standard BEADG

Intro:
G|---------------------------------------------------------------------------|
D|---------------------------------------------------------------------------|
A|---------------------------------------------------------------------------|
E|-5-------------------------------------------------------------------------|
B|---------------------------------------------------------------------------|

G|-------7--8--7-----7-------------------------------------------------------|
D|-7-10-----------10----10--7-10-7-------------------------------------------|
A|----------------------------------5/12-------------------------------------|
E|---------------------------------------------------------------------------|
B|---------------------------------------------------------------------------|

G|-----------------7--9--9--12-9-------12------10------9---------------------|
D|---------7-9-10----------------12p10---12p10---10p9---8p7--12--------------|
A|-7----7------------------------------------------------------10p8--8p7--7b8|
E|---7-----------------------------------------------------------------------|
B|---------------------------------------------------------------------------|

G|--------------------------10-12/14---14--12--10--12----10/12--12--10--9--10|
D|--------------------10-12--------------------------------------------------|
A|-----------10-12-13--------------------------------------------------------|
E|-10--12-13-----------------------------------------------------------------|
B|---------------------------------------------------------------------------|

G|-17-16-14------------------------------------------------------------------|
D|----------17--15--15--14--14--12--12--10--10--9--9--7--7-------------------|
A|---------------------------------------------------------10--10--8--8---7--|
E|---------------------------------------------------------------------------|
B|---------------------------------------------------------------------------|

(here starts the actual song...)
G|----------------------------------------------------------|
D|----------------------------------------------------------|
A|----------------------------------------------------------|
E|-5----5----5----0--5--0--3----5----5----5----0--5--0--3---|x7
B|----------------------------------------------------------|

G|----------------------------------------------------------|
D|----------------------------------------------------------|
A|---------------------------------------------7\5----------|
E|-5----5----5----0--5--0--3----5----5----5---------8-------|
B|----------------------------------------------------------|

G|----------------------------------------------------------|
D|----------------------------------------------------------|
A|----------------------------------------------------------|
E|-5----5----5----0--5--0--3----5----5----5----0--5--0--3---|
B|----------------------------------------------------------|

G|----------------------------------------------------------|
D|----------------------------------------------------------|
A|----------------------------------------------------------|
E|-5----5----5----0--5--0--3----5----5----5-------------3---|
B|--------------------------------------------3--3---3------|

G|----------------------------------------------------------|
D|----------------------------------------------------------|
A|----------------------------------------------------------|
E|-5----5----5----0--5--0--3----5----5----5----0--5--0--3---|
B|----------------------------------------------------------|

G|----------------------------------------------------------|
D|----------------------------------------------------------|
A|-------------------------3-----5----5----5----5--5---5--5-|
E|-5----5----5----0--5--0-----5-----------------------------|
B|----------------------------------------------------------|

G|----------------------------------------------------------|
D|----------------------------------------------------------|
A|----------------------------------------------------------|
E|------------------------------------------------------3---|x4
B|-5----5----5----5--5--5--3----6----6----6----6--6--6------|

G|----------------------------------------------------------|
D|----------------------------------------------------------|
A|----------------------------------------------------------|
E|----------------------------------------------------------|
B|-5----5----5----5--5--5--3----6---------------------------|

G|----------------------------------------------------------|
D|----------------------------------------------------------|
A|----------------------------------------------------------|
E|-5----5----5----0--5--0--3----5----5----5----0--5--0--3---|x3
B|----------------------------------------------------------|

G|----------------------------------------------------------|
D|----------------------------------------------------------|
A|----------------------------------------------------------|
E|-5----5----5----0--5--0--3----5----5----5-------------3---|
B|--------------------------------------------3--3---3------|

G|----------------------------------------------------------|
D|----------------------------------------------------------|
A|----------------------------------------------------------|
E|-5----5----5----0--5--0--3----5----5----5----0--5--0--3---|x3
B|----------------------------------------------------------|

G|----------------------------------------------------------|
D|----------------------------------------------------------|
A|-----------------------3-----5----5----5----5--5----------|
E|-5----5----5----0--5------5-------------------------------|
B|--------------------------------------------------3--3----|

G|----------------------------------------------------------|
D|----------------------------------------------------------|
A|----------------------------------------------------------|
E|------------------------------------------------------3---|x4
B|-5----5----5----0--5--0--3----6----6----6----3--6--3------|

G|----------------------------------------------------------|
D|----------------------------------------------------------|
A|----------------------------------------------------------|
E|----------------------------------------------------------|
B|-5----5----5----0--5--0--3----6---------------------------|

G|----------------------------------------------------------|
D|----------------------------------------------------------|
A|----------------------------------------------------------|
E|-5----5----5----0--5--0--3----5----5----5----0--5--0--3---|
B|----------------------------------------------------------|

G|----------------------------------------------------------|
D|----------------------------------------------------------|
A|----------------------------------------------------------|
E|-5----5----5----0--5--0--3----5----5----5--5-------------5|
B|----------------------------------------------3--3--5--5--|

G|----------------------------------------------------------|
D|----------------------------------------------------------|
A|----------------------------------------------------------|
E|-5----5----5----0--5--0--3----5----5----5----0--5--0--3---|
B|----------------------------------------------------------|

                                            (P)
G|----------------------------------------------------------|
D|----------------------------------------------------------|
A|-------------------------------------------5-5-3----------|
E|-5----5----5----0--5--0--3----5----5----5--------5--3-----|
B|-------------------------------------------------------5--|

G|----------------------------------------------------------|
D|----------------------------------------------------------|
A|----------------------------------------------------------|
E|-5----5----5----0--5--0--3----5----5----5----0--5--0--3---|
B|----------------------------------------------------------|

G|----------------------------------------------------------|
D|----------------------------------------------------------|
A|----------------------------------------------------------|
E|-5----5----5----0--5--0--3----5----5----5----------------3|
B|---------------------------------------------3--3--3--5---|

G|----------------------------------------------------------|
D|----------------------------------------------------------|
A|----------------------------------------------------------|
E|-5----5----5----0--5--0--3----5----5----5----0--5--0--3---|
B|----------------------------------------------------------|

G|----------------------------------------------------------|
D|----------------------------------------------------------|
A|----------------------------------------------------------|
E|-5----5----5----0--5----3----5----5----5----0--5--0--3----|
B|----------------------------------------------------------|

G|----------------------------------------------------------|
D|----------------------------------------------------------|
A|----------------------------------------------------------|
E|-5----5----5----0--5--0--3----5----5----5----0--5--0--3---|
B|----------------------------------------------------------|

G|----------------------------------------------------------|
D|----------------------------------------------------------|
A|----------------------------------------------------------|
E|-5----5----5----0--5--0--3----5----5----5----------------3|
B|---------------------------------------------3--3--3--5---|


G|----------------------------------------------------------|
D|----------------------------------------------------------|
A|----------------------------------------------------------|
E|-5----5----5----0--5--0--3----5----5----5----0--5----3----|
B|----------------------------------------------------------|


G|----------------------------------------------------------|
D|----------------------------------------------------------|
A|---------------------------------------------------------3|
E|-5----5----5----0--5--0--3----5----5----------------3--3--|
B|----------------------------------------3-3--3-5--5-------|

G|----------------------------------------------------------|
D|----------------------------------------------------------|
A|----------------------------------------------------------|
E|-5----5----5----0--5--0--3----5----5----5----0--5--0--3---|
B|----------------------------------------------------------|

G|----------------------------------------------------------|
D|----------------------------------------------------------|
A|----------------------------------------------------------|
E|-5----5----5----0--5--0--3----5----5----5--5--3-3---------|
B|--------------------------------------------------5-5-----|

G|----------------------------------------------------------|
D|----------------------------------------------------------|
A|----------------------------------------------------------|
E|------------------------------------------------------3---|
B|-5----5----5----0--5--0--3----6----6----6----3--6--3------|

G|----------------------------------------------------------|
D|----------------------------------------------------------|
A|----------------------------------------------------------|
E|------------------------------------------------------3---|
B|-5----5----5----0--5----3----6----6----6----3--6----------|

G|----------------------------------------------------------|
D|----------------------------------------------------------|
A|----------------------------------------------------------|
E|------------------------------------------------------3---|x2
B|-5----5----5----0--5--0--3----6----6----6----3--6--3------|

G|----------------------------------------------------------|
D|----------------------------------------------------------|
A|----------------------------------------------------------|
E|----------------------------------------------------------|
B|-5----5----5----0--5--0--3----6---------------------------|

G|----------------------------------------------------------|
D|----------------------------------------------------------|
A|----------------------------------------------------------|
E|-5----5----5----0--5--0--3----5----5----5----0--5--0--3---|x2
B|----------------------------------------------------------|

G|----------------------------------------------------------|
D|----------------------------------------------------------|
A|----------------------------------------------------------|
E|-5----5----5----0--5----3----5----5----5----0--5--0--3----|
B|----------------------------------------------------------|

G|----------------------------------------------------------|
D|----------------------------------------------------------|
A|----------------------------------------------------------|
E|-5----5----5----0--5--0--3----5----5----5-------------3---|
B|---------------------------------------------3--3--5------|

G|----------------------------------------------------------|
D|----------------------------------------------------------|
A|----------------------------------------------------------|
E|-5----5----5----0--5--0--3----5----5----5----0--5--0--3---|
B|----------------------------------------------------------|

G|----------------------------------------------------------|
D|----------------------------------------------------------|
A|----------------------------------------------------------|
E|-5----5----5----0--5--0--3----5----5----5-------------3--5|
B|---------------------------------------------3--3--5------|

G|----------------------------------------------------------|
D|----------------------------------------------------------|
A|----------------------------------------------------------|
E|-5----5----5----5--5---5--3--5----5----5----0--5----3-----|
B|----------------------------------------------------------|

G|----------------------------------------------14----------|
D|----------------------------------------14-14----17--14---|
A|----------------------------------------------------------|
E|-5----5----5----0--5--0--3----5---5---5-------------------|
B|----------------------------------------------------------|

G|----------------------------------------------------------|
D|----------------------------------------------------------|
A|----------------------------------------------------------|
E|-17\5----5----5----0--5--0--3----5----5----5----0--5--0--3|
B|----------------------------------------------------------|

G|----------------------------------------------------------|
D|----------------------------------------------------------|
A|----------------------------------------------------------|
E|-5----5----5----0--5--0--3----5----5----5----0--5--0--3---|x2
B|----------------------------------------------------------|

G|----------------------------------------------------------|
D|----------------------------------------------------------|
A|----------------------------------------------------------|
E|-5----5----5----0--5--0--3----5--0-3----------------------|
B|--------------------------------------5--3-5--3--0-3--0---|

G|----------------------------------------------------------|
D|----------------------------------------------------------|
A|----------------------------------------------------------|
E|-5----5----5----5--5---5--3--5----5----5----0--5--0--3----|
B|----------------------------------------------------------|

G|----------------------------------------------------------|
D|----------------------------------------------------------|
A|----------------------------------------------------------|
E|-5----5----5----0--5--0--3----5----5----5----0--5--0--3---|
B|----------------------------------------------------------|

G|----------------------------------------------------------|
D|----------------------------------------------------------|
A|----------------------------------------------------------|
E|-5--0--5--0--5----0--5--0--3----5----5----5----0--5--0--3-|
B|----------------------------------------------------------|

                                       (s)
G|----------------------------------------------------------|
D|----------------------------------------------------------|
A|---3----------------------------------3-------------------|
E|5----5--0--5----0--5--0--3----5----5---h5-------3--3------|
B|------------------------------------------------------0---|

(fade out...)
G|----------------------------------------------------------|
D|----------------------------------------------------------|
A|----------------------------------------------------------|
E|-5----5----5----0--5--0--3----5----5----5----0--5--0--3---|x6
B|----------------------------------------------------------|

===============================================================================
Notes:

If the sound at 00:18 is played on the bass (I think it is), I'm sorry, but I
don't have a string tuned that high, and I wanted to do this on standard
tuning, so if You don't have a 6-stringed or something You can play the sound
in an octave lower starting at the 12th fret of the D string, then slide it up
to the 25th fret (if You have a 25th fret on Your bass...). If You have a 6th
string, it'll be still tricky, 'cause it's a D4 slided more than an octave
higher. I simply left it out, 'cause yeah, it adds to the atmosphere of the
song, but nothing else.

And yeah, I could've do it with repeat signs and stuff, but it'd be a mess,
'cause notes are changing not only on end of lines but during them also, so
it's clean and clear this way.
And also, I didn't split it to verse and chorus and stuff, 'cause this song
doesn't really have those, rather an intro plus 8 minutes of variations for a
bassline.

If You have problems with this tab, write Me a mail what's wrong with it
instead of giving it a bad rating! It'd be better for everyone! Thx!


|(s) slap string
|(P) pop string (as after a slap)
| /  slide up
| \  slide down
| h  hammer-on
| p  pull-off
| ~  vibrato
| +  harmonic
| x  Mute note
===============================================================================
comments
We did not receive enough feedback on this tab! Please rate:
print report bad tab
1 2 3 4 5
I want to post or [tab]
guest
You may want to rate the tab now too:
select rating
Please do not post tabs as comments. Select "correction" instead!