Oops, an error
Loading. Please wait.

Take A Look At My Girlfriend Bass Tab

1,716 views 3 this week
2 commentsread comments
1 2 3 4 5
excellent!
x 1
Autoscroll
+/-
esc
set tempo
stop
Contributor
Difficulty
novice
Hey! There's an official Ultimate Guitar app which is ideal
for learning songs when you're away from computer. Get the app
WARNING: You are trying to view
                                    content from Ultimate-Guitar.com
                                    in an unauthorized application,
                                    which is prohibited.

                                    Please use an official Ultimate
                                    Guitar Tabs application for iPhone,
                                    iPad or Android to access legitimate
                                    chords, guitar, bass, and drum tabs
                                    from Ultimate-Guitar.com database.

                                    Type "ultimate guitar tabs" in Apple
                                    App Store's or Android Market's
                                    search to find the application.
TAKE A LOOK AT MY GIRLFRIEND BASS TAB
Supertramp


First Verse
G|----------------|----------------|
D|----------------|----------------|
A|3-3--------6----|3-3--------6----|
E|----6-6-4-4-4-46|----6-6-4-4-4-4-|

Bridge
G|--------5---5---|----------------|----------------|
D|5---5----5---5--|5---5-----------|3---------------|
A|-5---5----3---3-|-5---5----------|----------------|
E|--3---3---------|--3---3-1--\6---|---\6-----------|

Second Verse
G|----------------|-----------------|
D|----------------|------------653--|
A|3-3--------6----|3-3--------6---6-|
E|----6-6-4-4-4-46|----6-6-4-4------|

Bridge
G|--------5---5---|----------------|-------------12--|
D|5---5----5---5--|5---5-----------|3----------------|
A|-5---5----3---3-|-5---5----------|-----------------|
E|--3---3---------|--3---3-1--\6---|---\6------------|

Chorus
G|--------5---5---|--------5---5---|---------------|
D|5---5----5---5--|5---5----5---5--|---------------|
A|-5---5----3---3-|-5---5----3---3-|---------------|
E|--3---3---------|--3---3--------6|4----431--\6---|

Third Verse
G|----------------|-----------------|
D|----------------|------------653--|
A|3-3--------6----|3-3--------6---6-|
E|----6-6-4-4-4-46|----6-6-4-4------|

Bridge
G|--------5---5---|----------------|-------------12--|
D|5---5----5---5--|5---5-----------|3----------------|
A|-5---5----3---3-|-5---5----------|-----------------|
E|--3---3---------|--3---3-1--\6---|---\6------------|

Chorus/Outro
G|--------5---5---|--------5---5----|--------5---5---|--------5---5---|---------------|
D|5---5----5---5--|5---5----5---5---|5---5----5---5--|5---5----5---5--|---------------|
A|-5---5----3---3-|-5---5----3---356|-5---5----3---3-|-5---5----3---3-|---------------|
E|--3---3---------|--3---3----------|--3---3---------|--3---3--------6|4----431--\6---|

tabbed by scottsbass
comments
We did not receive enough feedback on this tab! Please rate:
print report bad tab
1 2 3 4 5
2 comments total.
0 reply
scottsbass wrote on July 28 2009, 02:24 pm

The last bar of the bridge can be/should be:

G|-----------------
D|-----------------
A|8----------------
E|---\6------------

Easier to play the F on the A string than jumping to the D string to play it.

+1 reply
FerretBob wrote on March 16 2011, 06:01 am

The song is actually called Breakfast in America ;)

I want to post or [tab]
guest
You may want to rate the tab now too:
select rating
Please do not post tabs as comments. Select "correction" instead!