Oops, an error
Loading. Please wait.

Ballroom Blitz Bass Tab

ver3
ver3

Whole song

Interactive

More versions @911Tabs.com
5,074 views 18 this week
no commentswrite comment
1 2 3 4 5
excellent!
x 2
Autoscroll
+/-
esc
set tempo
stop
Contributor
Hey! There's an official Ultimate Guitar app which is ideal
for learning songs when you're away from computer. Get the app
WARNING: You are trying to view
                                    content from Ultimate-Guitar.com
                                    in an unauthorized application,
                                    which is prohibited.

                                    Please use an official Ultimate
                                    Guitar Tabs application for iPhone,
                                    iPad or Android to access legitimate
                                    chords, guitar, bass, and drum tabs
                                    from Ultimate-Guitar.com database.

                                    Type "ultimate guitar tabs" in Apple
                                    App Store's or Android Market's
                                    search to find the application.
Ballroom Blitz - Sweet Bass Tab 

X= Muted note
/= Slide up against your bass head.

|----------|---------------|---------------|---------------|---------------|
|----------|---------------|---------------|---------------|---------------|
|----------|----7-7-7-7-7-7|----7-7-7-7-7-7|----7-7-7-7-7-7|--7-7-7-7-7----|
|--x--12/0-|0--------------|0--------------|0--------------|0-----------3/0|
                                                                              
|------------------------|-----------------------|-----------------|
|------------------------|-----------------------|-----------------|
|------------------------|-----------------------|-----7-7-7-7-7-7-|
|-5--5--5--5--5--5-5-5-5-|5--5--5--5--5--5-5-5-5-|-0---------------|
                                                                              
|----------------|------------------------|------------------------|
|----------------|------------------------|------------------------|
|---7-7-7-7-7----|------------------------|------------------------|
|-0-----------3/-|-5--5--5--5--5--5-5-5-5-|-5--5--5--5--5--5-5-5-5-|
                                                                              
|-----------------|-----------------|------------------|-------------------|
|-----------------|-----------------|------------------|-------------------|
|-----7-7-7-7-7-7-|-----7-7-7-7-7-7-|------------------|-------------------|
|-0---------------|-0---------------|-0----------------|-------------------|
                                                                              
|-----------------|-----------------|------------------|
|-----------------|-----------------|------------------|
|-----------------|-----------------|-7----------------|
|-----------------|-----------------|------------------|
                                                                              
|------------------------|------------------------|
|------------------------|------------------------|
|------------------------|------------------------|
|-2--2--2--2--2--2-2-2-2-|-5--5--5--5--5--5-5-5-5-|
                                                                              
|------------------------|--------------------------------|
|------------------------|--------------------------------|
|------------------------|--------------------------------|
|-8--8--8--8--8--8-8-8-8-|-12--12--12--12--12--12--12--12-|
                                                                              
|--------------------------------|------------------------|
|--------------------------------|------------------------|
|--------------------------------|------------------------|
|--12--12--12--12--12--12--12--7-|-2--2--2--2--5--5--5--5-|
                                                                              
|----------------------------|------------------------|
|----------------------------|------------------------|
|----------------------------|------------------------|
|-7--7--7--7--12--12--12--12-|-2--2--2--2--5--5--5--5-|
                                                                              
|------------------------|----------------------------|
|------------------------|----------------------------|
|------------------------|----------------------------|
|-7--7--7--7--12--10--11-|-12--12--12--12--12--10--11-|
                                                                              
|----------------------------|----------------------------|
|----------------------------|----------------------------|
|----------------------------|----------------------------|
|-12--12--12--12--12--10--11-|-12--12--12--12--12--10--11-|
                                                                              
|--------------------------------|----------------------|
|--------------------------------|----------------------|
|--------------------------------|----------------------|
|-12--12--12--12--12--12--12--10-|-12-------------------|
                                                                              
|--------------------|-----------------------|-----------------------|
|--------------------|-----------------------|-----------------------|
|--------------------|-----------------------|-----------------------|
|--------------------|-0---------------------|-0------------------3/-|
                                                                              
|------------------------|------------------------|-----------------|
|------------------------|------------------------|-----------------|
|------------------------|------------------------|-----7-7-7-7-7-7-|
|-5--5--5--5--5--5-5-5-5-|-5--5--5--5--5--5-5-5-5-|-0---------------|
                                                                              
|-----------------|------------------------|------------------------|
|-----------------|------------------------|------------------------|
|----7-7-7-7-7----|------------------------|------------------------|
|-0------------3/-|-5--5--5--5--5--5-5-5-5-|-5--5--5--5--5--5-5-5-5-|                     

|-----------------|-----------------|--------------------|-----------------|
|-----------------|-----------------|--------------------|-----------------|
|-----7-7-7-7-7-7-|----7-7-7-7-7----|--------------------|-----------------|
|0----------------|0--------------7-|0-------------------|-----------------|
                                                                              
|-----------------|-------------------|-------------------|
|-----------------|-------------------|-------------------|
|-----------------|-------------------|-7-----------------|
|-----------------|-------------------|-------------------|
                                                                              
|------------------------|------------------------|
|------------------------|------------------------|
|------------------------|------------------------|
|-2--2--2--2--2--2-2-2-2-|-5--5--5--5--5--5-5-5-5-|
                                                                              
|------------------------|--------------------------------|
|------------------------|--------------------------------|
|------------------------|--------------------------------|
|-8--8--8--8--8--8-8-8-8-|-12--12--12--12--12--12--12--12-|
                                                                              
|--------------------------------|------------------------|
|--------------------------------|------------------------|
|--------------------------------|------------------------|
|--12--12--12--12--12--12--12--7-|-2--2--2--2--5--5--5--5-|
                                                                              
|----------------------------|------------------------|
|----------------------------|------------------------|
|----------------------------|------------------------|
|-7--7--7--7--12--12--12--12-|-2--2--2--2--5--5--5--5-|
                                                                              
|------------------------|
|------------------------|
|------------------------|
|-7--7--7--7--12--10--11-|

|--------------------------------|--------------------------------|
|--------------------------------|--------------------------------| X 5
|--------------------------------|--------------------------------|
|-12--12--12--12--12--12--12--10-|-12--12--12--12--12--12--10--11-|
                                                   
|------------------------|------------------------|
|------------------------|------------------------|
|------------------------|------------------------|
|-2--2--2--2--2--2-2-2-2-|-5--5--5--5--5--5-5-5-5-|
                                                                              
|------------------------|--------------------------------|
|------------------------|--------------------------------|
|------------------------|--------------------------------|
|-8--8--8--8--8--8-8-8-8-|-12--12--12--12--12--12--12--12-|
                                                                              
|--------------------------------|------------------------|
|--------------------------------|------------------------|
|--------------------------------|------------------------|
|--12--12--12--12--12--12--12--7-|-2--2--2--2--5--5--5--5-|
                                                                              
|----------------------------|------------------------|
|----------------------------|------------------------|
|----------------------------|------------------------|
|-7--7--7--7--12--12--12--12-|-2--2--2--2--5--5--5--5-|
                                                                              
|------------------------|----------------------------|
|------------------------|----------------------------|
|------------------------|----------------------------|
|-7--7--7--7--12--10--11-|-12--12--12--12--12--10--11-|
                                                                              
|----------------------------|----------------------------|
|----------------------------|----------------------------|
|----------------------------|----------------------------|
|-12--12--12--12--12--10--11-|-12--12--12--12--12--10--11-|
                                                                              
|--------------------------------|
|--------------------------------|
|--------------------------------|
|-12--12--12--12--12--12--12--10-|

|--------------------------------|--------------------------------|
|--------------------------------|--------------------------------| x 2
|--------------------------------|--------------------------------|
|-12--12--12--12--12--12--12--10-|-12--12--12--12--12--12--12--10-|

|---------------|---------------|---------------|---------------|
|---------------|---------------|---------------|---------------| x 4
|----7-7-7-7-7-7|----7-7-7-7-7-7|----7-7-7-7-7-7|----7-7-7-7-7-7|
|0--------------|0--------------|0--------------|0--------------|

End!
comments
We did not receive enough feedback on this tab! Please rate:
print report bad tab
1 2 3 4 5
I want to post or [tab]
guest
You may want to rate the tab now too:
select rating
Please do not post tabs as comments. Select "correction" instead!