Oops, an error
Loading. Please wait.

Afterlife Tab

ver1
ver1

Whole song

More versions @911Tabs.com
3,466 views 9 this week
no commentswrite comment
1 2 3 4 5
please rate
Autoscroll
+/-
esc
set tempo
stop
Contributor
Difficulty
Tuning
intermediate
D A D G B E
WARNING: You are trying to view
                                    content from Ultimate-Guitar.com
                                    in an unauthorized application,
                                    which is prohibited.

                                    Please use an official Ultimate
                                    Guitar Tabs application for iPhone,
                                    iPad or Android to access legitimate
                                    chords, guitar, bass, and drum tabs
                                    from Ultimate-Guitar.com database.

                                    Type "ultimate guitar tabs" in Apple
                                    App Store's or Android Market's
                                    search to find the application.
Artist: Switchfoot
Song: Afterlife
Tabbed By: kylestoughton

Tuning: Drop D

b=bend
/-slide

Intro:
E|-------| 
B|-------|
G|-------| 
D|--7----|
A|--7----|(hold for about 10 sec.)
D|--7----|

E|------------------| 
B|------------------|
G|------------------| 
D|--7-7-7----7-7-7--|
A|--7-7-7----7-7-7--| x2
D|--7-7-7----7-7-7--|

Verse 1
E|------------------| 
B|------------------|
G|------------------| 
D|--7-7-7----7-7-7--|
A|--7-7-7----7-7-7--| x4
D|--7-7-7----7-7-7--|
I've tasted fire, I'm ready to come alive/I can't just shut it up and fake that I'm alright

E|--------------------------------------| 
B|--------------------------------------|
G|--------------------------------------| 
D|--3-3-3----3-3-3------5-5-5----5-5-5--|
A|--3-3-3----3-3-3------5-5-5----5-5-5--|
D|--3-3-3----3-3-3------5-5-5----5-5-5--|
I'm ready now/I'm not waiting for the afterlife

E|-------------------------------------------|
B|------------------4b5----------------------|
G|--------------------------------------4b5--|
D|--7-7-7----7-7-7------7-7-7----7-7-7-------|
A|--7-7-7----7-7-7------7-7-7----7-7-7-------| x2
D|--7-7-7----7-7-7------7-7-7----7-7-7-------|

E|-------------------------------------------|
B|--------------------------------------4b5--|
G|-------------------------------------------|
D|--7-7-7----7-7-7------7-7-7----7-7-7-------|
A|--7-7-7----7-7-7------7-7-7----7-7-7-------|
D|--7-7-7----7-7-7------7-7-7----7-7-7-------|
I'll let it burn the way the sunlight burns my skin

E|-------------------------------------------|
B|-------------------------------------------|
G|--------------------------------------4b5--|
D|--7-7-7----7-7-7------7-7-7----7-7-7-------|
A|--7-7-7----7-7-7------7-7-7----7-7-7-------|
D|--7-7-7----7-7-7------7-7-7----7-7-7-------|
The way I feel inside, the way the day begins

E|--------------------------------------| 
B|--------------------------------------|
G|--------------------------------------| 
D|--3-3-3----3-3-3------5-5-5----5-5-5--|
A|--3-3-3----3-3-3------5-5-5----5-5-5--| x2
D|--3-3-3----3-3-3------5-5-5----5-5-5--|
I'm ready now/I'm not waiting for the other side/I'm ready now, I'm ready now, cause...

Chorus
E|----------------------------------------------------------|
B|----------------------------------------------------------|
G|----------------------------------------------------------|
D|--7-7-7-7-7-7-7-7-10-10-10-10-10-10-10-10-3-3-3-3-3-3-3-3-|
A|--7-7-7-7-7-7-7-7-10-10-10-10-10-10-10-10-3-3-3-3-3-3-3-3-|
D|--7-7-7-7-7-7-7-7-10-10-10-10-10-10-10-10-3-3-3-3-3-3-3-3-|
Every day/The world is made/A chance to change

E|----------------------------------------------------------|
B|----------------------------------------------------------|
G|----------------------------------------------------------|
D|--0-0-0-0-0-0-0-0-7-7-7-7-7-7-7-7-10-10-10-10-10-10-10-10-|
A|--0-0-0-0-0-0-0-0-7-7-7-7-7-7-7-7-10-10-10-10-10-10-10-10-|
D|--0-0-0-0-0-0-0-0-7-7-7-7-7-7-7-7-10-10-10-10-10-10-10-10-|
But I feel the same/And I wonder why would I wait till I die/To come alive?

E|----------------------------------|
B|----------------------------------|
G|----------------------------------|
D|--3-3-3-3-3-3-3-3-5-5-5-5-5-5-5-5-|
A|--3-3-3-3-3-3-3-3-5-5-5-5-5-5-5-5-|
D|--3-3-3-3-3-3-3-3-5-5-5-5-5-5-5-5-|
I'm ready now/I'm not waiting for the afterlife

Interlude
E|-------------------------------------------|
B|------------------4b5----------------------|
G|--------------------------------------4b5--|
D|--7-7-7----7-7-7------7-7-7----7-7-7-------|
A|--7-7-7----7-7-7------7-7-7----7-7-7-------|
D|--7-7-7----7-7-7------7-7-7----7-7-7-------|

Verse 2
E|------------------| 
B|------------------|
G|------------------| 
D|--7-7-7----7-7-7--|
A|--7-7-7----7-7-7--| x2
D|--7-7-7----7-7-7--|
I still believe we can live forever/You and I, we begin

E|-----------------------------------|
B|--------4b5------------------------|
G|--------------------------4b5------|
D|--3-3-3----3-3-3----0-0-0----0-0-0-|
A|--3-3-3----3-3-3----0-0-0----0-0-0-|
D|--3-3-3----3-3-3----0-0-0----0-0-0-|
Forever now/Forever now/Forever

E|------------------| 
B|------------------|
G|------------------| 
D|--7-7-7----7-7-7--|
A|--7-7-7----7-7-7--| x2
D|--7-7-7----7-7-7--|
I still believe in us together/You and I, we're here together now

E|-----------------------------------|
B|--------4b5------------------------|
G|--------------------------4b5------|
D|--3-3-3----3-3-3----0-0-0----0-0-0-|
A|--3-3-3----3-3-3----0-0-0----0-0-0-|
D|--3-3-3----3-3-3----0-0-0----0-0-0-|
Forever now/Forever now

E|-----------------------------------|
B|--------4b5------------------------|
G|-----------------------------------|
D|--3-3-3----3-3-3----0-0-0----0-0-0-|
A|--3-3-3----3-3-3----0-0-0----0-0-0-|
D|--3-3-3----3-3-3----0-0-0----0-0-0-|
Or never now, cause...

Chorus

Solo
E|-----------------------------------------------------------------| 
B|----------11--------------------------11-------------------------|
G|-------------12--------------------------12/13/12-------12/13/12-| 
D|-10-12-13--------10-8/10-8----10-12-13------------13/10----------|
A|-----------------------------------------------------------------|
D|-----------------------------------------------------------------|

E|-----------------11-10-----------------------------------------|
B|-----------------------13-11-11/13-----------------------------|
G|-----------11----------------------13-12-------------11--------|
D|--------------12----------------------------------------12-12b-|
A|--10-12-13----------------------------------10-12-13-----------|
D|---------------------------------------------------------------|

Chorus x2

E|----------------------------------|
B|----------------------------------|
G|----------------------------------| 
D|--3-3-3-3-3-3-3-3-5-5-5-5-5-5-5-5-|
A|--3-3-3-3-3-3-3-3-5-5-5-5-5-5-5-5-| x2
D|--3-3-3-3-3-3-3-3-5-5-5-5-5-5-5-5-|

Outro

E|-------------------------------------------|
B|------------------4b5----------------7b8---|
G|-------------------------------------------|
D|--7-7-7----7-7-7------7-7-7----7-7-7-------|
A|--7-7-7----7-7-7------7-7-7----7-7-7-------|
D|--7-7-7----7-7-7------7-7-7----7-7-7-------|

E|-------------------------------------------|
B|-----------------12b13---------------------|
G|-------------------------------------------|
D|--7-7-7----7-7-7------7-7-7----7-7-7-------|
A|--7-7-7----7-7-7------7-7-7----7-7-7-------|
D|--7-7-7----7-7-7------7-7-7----7-7-7-------|
comments
We did not receive enough feedback on this tab! Please rate:
1 2 3 4 5
I want to post or [tab]
guest
You may want to rate the tab now too:
select rating
Please do not post tabs as comments. Select "correction" instead!