Oops, an error
Loading. Please wait.

Beautiful Letdown Tab

ver1
ver1

Album

Solo

Whole song

More versions @911Tabs.com
25,877 views 3 this week
9 commentsread comments
1 2 3 4 5
accurate
x 30
Autoscroll
+/-
esc
set tempo
stop
Contributor
Hey! There's an official Ultimate Guitar app which is ideal
for learning songs when you're away from computer. Get the app
WARNING: You are trying to view
                                    content from Ultimate-Guitar.com
                                    in an unauthorized application,
                                    which is prohibited.

                                    Please use an official Ultimate
                                    Guitar Tabs application for iPhone,
                                    iPad or Android to access legitimate
                                    chords, guitar, bass, and drum tabs
                                    from Ultimate-Guitar.com database.

                                    Type "ultimate guitar tabs" in Apple
                                    App Store's or Android Market's
                                    search to find the application.
Band- Switchfoot
Album- The Beautiful Letdown

Tracks:
1.Meant To Live
2.This Is Your Life
3.More Than Fine
4.Ammunition
5.Dare You To Move
6.Redemption
7.The Beautiful Letdown
8.Gone
9.On Fire
10.Adding To The Noise
11.Twenty-Four

-----------------------------------------------

1.MEANT TO LIVE
Tuning- Drop D

Intro (ansrew call feeling first time, then play it both together)

    GT1   GT2       GT1       GT2  GT1&2
E|------|---------|---------|---|------------|
B|------|---------|---------|---|------------|
G|-4-4-4|----2-2-2|---------|---|------------|
D|-4-4-4|-b4-2-2-2|-b4-2-2-2|-b4|-5--5--5-7--|
A|-2-2-2|----0-0-0|----2-2-2|---|-5--5--5-7--|
D|------|---------|----2-2-2|---|-5--5--5-7--|

or

    GT1   GT2       GT1       GT2  GT1&2
E|------|---------|---------|---|------------|
B|------|---------|---------|---|------------|
G|------|---------|---------|---|------------|
D|-9-9-9|-b4-7-7-7|-b4-2-2-2|-b4|-5--5--5-7--|
A|-9-9-9|----7-7-7|----2-2-2|---|-5--5--5-7--|
D|-9-9-9|----7-7-7|----2-2-2|---|-5--5--5-7--|


Solo: (one guitarist splits from the main riff
to play this neat simple little solo)

E|----------------------------------|
B|----------------------------------|
G|----------------------------------|
D|--4b5--2--0--4--0---------------5<|
A|-------------------4------------5<|
D|----------------------7b--------5<|
                  full slow bend

Verse. Repeat 2x (throughout the verse)  (second option below)
E|-------------------------------------------------------------|
B|-------------------------------------------------------------|
G|-------------------------------------------------------------|
D|-------------------------------------------------------------|
A|-2-0-0--4-0-0--2-0-0--4h5p4--2-0-0--4-0-0--2-0-0-------------|
D|-2-0-0--4-0-0--2-0-0--4h5p4--2-0-0--4-0-0--2-0-0-------------|

E|----------|
B|----------|
G|----------|
D|----------|
A|-4h5/7--5<|
D|-4h5/7--5<|

Chorus. repeat 2x (this is the way i play it, for another option see below)
E|----------------------------------------------------|
B|----------------------------------------------------|
G|----------------------------------------------------|
D|--5-5-5-5-5-5-7-7-7-7-7-7-9-9-9-9-9-9--2-2-2---b4---|
A|--5-5-5-5-5-5-7-7-7-7-7-7-9-9-9-9-9-9--2-2-2--------|
D|--5-5-5-5-5-5-7-7-7-7-7-7-9-9-9-9-9-9--2-2-2--------|
          * * *       * * *       * * *

E|-------------------------------------------------------|
B|-------------------------------------------------------|
G|-------------------------------------------------------|
D|-5-5-5-5-5-5--2-2-2----b4---5-5-5-5-5-5--2-2-2-2<------|
A|-5-5-5-5-5-5--2-2-2---------5-5-5-5-5-5--2-2-2-2<------|
D|-5-5-5-5-5-5--2-2-2---------5-5-5-5-5-5--2-2-2-2<------|
         * * *                      * * *

Chorus
E|-------------------------------------------------|
B|-------------------------------------------------|
G|--------------2-2-2--x-x-x-4-4-4--x-x-x----------|
D|-5-5-5--x-x-x-2-2-2--x-x-x-4-4-4--x-x-x-2-2-2-4b-|
A|-5-5-5--x-x-x-0-0-0--x-x-x-2-2-2--x-x-x-2-2-2----|
D|-5-5-5--x-x-x---------------------------2-2-2----|

E|--------------------------------------------------|
B|--------------------------------------------------|
G|--------------------------------------------------|
D|-5-5-5--x-x-x-2-2-2-4b--5-5-5--x-x-x-2-2-2--x-x-x-|
A|-5-5-5--x-x-x-2-2-2-----5-5-5--x-x-x-2-2-2--x-x-x-|
D|-5-5-5--x-x-x-2-2-2-----5-5-5--x-x-x-2-2-2--x-x-x-|

E|----------------------------------------------|
B|----------------------------------------------|
G|-------------2-2-2-x-x-x-4-4-4-x-x-x----------|
D|-5-5-5-x-x-x-2-2-2-x-x-x-4-4-4-x-x-x-2-2-2-4b-|
A|-5-5-5-x-x-x-0-0-0-x-x-x-2-2-2-x-x-x-2-2-2----|
D|-5-5-5-x-x-x-------------------------2-2-2----|

E|--------------------|
B|--------------------|
G|--------------------|
D|-5-5-5-5-5-5-2-2-2-2|
A|-5-5-5-5-5-5-2-2-2-2|
D|-5-5-5-5-5-5-2-2-2-2|
         * * *
Bridge
Acoustic:repeat X times| *distortion*
E|---------------------|-----------------|
B|--3--3--3---8--8--8--|-----------------|
G|--2--2--2---7--7--7--|---5-5-55--------|
D|--0--0--0---5--5--5--|---5-5-55-5-5-55-|
A|--0--0--0---5--5--5--|---3-3-33-5-5-55-|
D|--0--0--0---5--5--5--|----------5-5-55-|

Outro:
E|----------------------------|
B|----------------------------|
G|--4-4-4------2-2-2----------|
D|--4-4-4--b4--2-2-2--b4--0~--|
A|--2-2-2------0-0-0------0~--|
D|------------------------0~--|

or

E|----------------------------|
B|----------------------------|
G|----------------------------|
D|--9-9-9--b4-7-7-7--b4--2~~--|
A|--9-9-9-----7-7-7------2~~--|
D|--9-9-9-----7-7-7------2~~--|

-----------------------------------------

2.THIS IS YOUR LIFE
Tuning- Standard

Intro/verse: Repeat.

E|------------------------------|
B|------------------------------|
G|------------------------------|
D|-------------------------6----|
A|-7—--4-7-4—--4-7—--4—--4—--7--|
E|—--4-------4---------5--------|

Chorus: Strum chords.

E|----------------------------------------------|
B|----------------------------------------------|
G|-9-----------9------------9-------------------|
D|-9------7----9-----7------9--------6--------7-|
A|-7—-----7----7-----7------7--------6--------7-|
E|—-------5----------5---------------4--------5-|
 .life....be..life...be...dream....younger..lose.


Small Solo: Repeat.

E|—--4-----5-4---|
B|—2-----2-—---5-|
G|-----4---------|
D|---------------|
A|---------------|
E|—--------------|

-----------------------------------------

3.MORE THAN FINE
Tuning- Drop D

D5    00023x
G/B   x2003x
Csus2 x3x03x
D5/F  3x023x
E7    2x0130
Cadd9 x3203x


 Intro
                                                  D5
  (synth intro if you care)                       Gtr I
|-10-----10-----|-10-----22----|---------|------------|
|---------------|--------------|---------|------------|
|---------------|--------------|---------|--------2---|
|---------------|--------------|---------|--------0---|
|---------------|--------------|---------|--------0---|
|---------------|--------------|---------|--------0---|

  [Main Riff]
    D5            G/B                    2x
||------------------|--------------------||
||o-----3-----3-----|------3------------o||
||------2---2-2-2-0-|------0------0------||
||------0---0-0-0-0-|------0---0--x-0----||
||o-0---0---0---0-2-|------2---2--3-2-0-o||
||--0---------------|--------------------||


 Verses 1 & 2
 o Play Main Riff 2x, then:

 [Verse Riff B]
  D5/F        E7                    G/B
|---------------|-----------------|---------------|-----------------||
|----3----3---3-|------3--3-3-3-3-|----3--3-3-3-3-|------3--3-3-3-3-||
|----2--2-2-2-1-|------1--1-1-1-1-|----0--0-0-0-0-|------0--0-0-0-0-||
|----0--0-0-0-0-|------0--0-0-0-0-|----x--x-x-x-x-|------x--x-x-x-x-||
|---------------|-----------------|-2--2--2-2-2-2-|------2--2-2-2-2-||
|-3-----3-3-3---|------2--2---2---|---------------|-----------------||

 o Play Main Riff 4x, then Verse Riff B, then Main Riff 2x


 Pre-Chorus
  Cadd9                         D5            G/B
|---------------|-------------|-----------------|-------------------|
|-3-3-3---3-3-3-|---3--3-3-3--|-----3-----3-----|------3------------|
|-0-0-0---0-0-0-|---0--0-0-0--|-----2---2-2-2-0-|------0------0-----|
|-2-2-2---2-2-2-|---2--2-2-2--|-----0---0-0-0-0-|------0---0--x-0---|
|-3-3-3---3-3-3-|---3--3-3-3--|-----0---0---0-2-|------2---2--3-2-0-|
|---------------|-------------|-0---------------|-------------------|

  Cadd9                         E7
|---------------|-------------|-0-0-0-0-0-0-0-0-|-0-0-0-0-0-0-0-0-||
|-3-3-3---3-3-3-|---3--3-3-3--|-3-3-3-3-3-3-3-3-|-3-3-3-3-3-3-3-3-||
|-0-0-0---0-0-0-|---0--0-0-0--|-1-1-1-1-1-1-1-1-|-1-1-1-1-1-1-1-1-||
|-2-2-2---2-2-2-|---2--2-2-2--|-0-0-0-0-0-0-0-0-|-0-0-0-0-0-0-0-0-||
|-3-3-3---3-3-3-|---3--3-3-3--|-----------------|-----------------||
|---------------|-------------|-----------------|-----------------||


 Chorus 1
 [Chorus Riff A]                                       end Chorus Riff A
  G5            A                     G5            A
|-----------------|-----------------|-----------------|----------------|
|-----3-----3---2-|-----2---2-2-2-2-|-----3-----3---2-|----2---2-2-2-2-|
|-----0---0-0-0-2-|-----2---2-2-2-2-|-----0---0-0-0-2-|----2---2-2-2-2-|
|-0---0---0-0-0-2-|-----2---2-2-2-2-|-0---0---0-0-0-2-|----2---2-2-2-2-|
|---------------0-|---------0---0---|---------------0-|--------0---0---|
|-5---5---5---5---|-----------------|-5---5---5---5---|----------------|
|
| Gtr II
|-----2-----2-----|-----0-------0---|-----2-----2-----|----0---3-2-0----|
|---3---3-----3---|---3---3---3---3-|---3---3-----3---|--3---3-------3--|
|-0-------0-----2-|---------2-------|-0-------0-----2-|-----------------|
|-----------------|-----------------|-----------------|-----------------|
|-----------------|-----------------|-----------------|-----------------|
|-----------------|-----------------|-----------------|-----------------|


  G5            A
|-----------------|----------------|
|-----3-----3---2-|----2---2-2-2-2-|
|-----0---0-0-0-2-|----2---2-2-2-2-|
|-0---0---0-0-0-2-|----2---2-2-2-2-|
|---------------0-|--------0---0---|
|-5---5---5---5---|----------------|
|
|-----2-----2-----|----0-----0-----|
|---3---3-----3---|--3---3-----3---|
|-0-------0-----2-|--------2-------|
|-----------------|----------------|
|-----------------|----------------|
|-----------------|----------------|
|
|
Gtr V (accordian)
|-----------------|----------5-----|
|-----------------|------------7-5-|
|-----------------|----------------|
|-----------------|----------------|
|-----------------|----------------|
|-----------------|----------------|


  o Gtr I plays Main Riff 2x over:
|-----0-----0-----|-----0-----0-----|-----0-----0-----|----0-------0----|
|---3---3-----3---|---3---3-----3---|---3---3-----3---|--3---3---3---3--|
|-2-------2-----0-|---------0-------|---------------0-|--------0--------|
|-----------------|---------------4-|---------4-------|-----------------|
|-----------------|-----------------|-----------------|-----------------|
|-----------------|-----------------|-----------------|-----------------|
|
|-----------------|-----------5-----|-----------------|----------------|
|-----------7-----|-------------7-5-|-----------7-----|----------------|
|-------------7---|-----------------|-------------7---|----------------|
|---------------7-|-----------------|---------------7-|----------------|
|-----------------|-----------------|-----------------|----------------|
|-----------------|-----------------|-----------------|----------------|


 Verse 3
 o Play Main Riff 2x, Verse Riff B, Main Riff 2x

 Pre-Chorus 2
 o same as first Pre-Chorus


 Chorus 2
 o Play Chorus Riff A, then:

  G5            A                   D5             G/B
|-----------------|----------------|-----------------|----------------|
|-----3-----3---2-|----2---2-2-2-2-|-----3-----3-----|----3-----------|
|-----0---0-0-0-2-|----2---2-2-2-2-|-----2---2-2-2-0-|----0-----0-----|
|-0---0---0-0-0-2-|----2---2-2-2-2-|-----0---0-0-0-0-|----0---0-x-0---|
|---------------0-|--------0---0---|-0---0---0---0-2-|----2---2-3-2-0-|
|-5---5---5---5---|----------------|-0---------------|----------------|
|
|-----2-----2-----|----0-------0---|-----0-----0-----|----0-----0-----|
|---3---3-----3---|--3---3---3---3-|---3---3-----3---|--3---3-----3---|
|-0-------0-----2-|--------2-------|-2-------2-----0-|--------0-----0-|
|-----------------|----------------|-----------------|----------------|
|-----------------|----------------|-----------------|----------------|
|-----------------|----------------|-----------------|----------------|




o Play Chorus Riff A again, then:

  G5            A                   D5             G/B
|-----------------|----------------|-----------------|----------------|
|-----3-----3---2-|----2---2-2-2-2-|-----3-----3-----|----3-----------|
|-----0---0-0-0-2-|----2---2-2-2-2-|-----2---2-2-2-0-|----0-----0-----|
|-0---0---0-0-0-2-|----2---2-2-2-2-|-----0---0-0-0-0-|----0---0-x-0---|
|---------------0-|--------0---0---|-0---0---0---0-2-|----2---2-3-2-0-|
|-5---5---5---5---|----------------|-0---------------|----------------|
|
|-----2-----2-----|----0-------0---|-----0-----0-----|----0-----0-----|
|---3---3-----3---|--3---3---3---3-|---3---3-----3---|--3---3-----3---|
|-0-------0-----2-|--------2-------|-2-------2-----0-|--------0-------|
|-----------------|----------------|-----------------|--------------4-|
|-----------------|----------------|-----------------|----------------|
|-----------------|----------------|-----------------|----------------|


  D5               G/B
|--------------------|------------------||
|------3-------3-----|----3-------------||
|------2----2--2-2-0-|----0-------0-----||
|------0----0--0-0-0-|----0----0--x-0---||
|--0---0----0----0-2-|----2----2--3-2-0-||
|--0-----------------|------------------||
|
|------0-------0-----|----0---------0---||
|----3---3-------3---|--3---3-----3---3-||
|------------------0-|---------0--------||
|-----------4--------|------------------||
|--------------------|------------------||
|--------------------|------------------||
|
|                     Gtr III
|                      < fdbk
|--------------------|-14---------------||
|--------------------|------------------||
|--------------------|------------------||
|--------------------|------------------||
|--------------------|------------------||
|--------------------|------------------||


 Bridge
  Gtr III                                                            7x
|---------------|----------------||----------------|-----------------||
|---------------|----------------||o---------------|----------------o||
|-7-7--5-7-7--5-|-7-7--5-7-7-5---||--5-7--5-7-7--5-|-7-7--5-7-7-5----||
|---------------|----------------||----------------|-----------------||
|-5-5--3-5-5--3-|-5-5--3-5-5-3-0-||o-3-5--3-5-5--3-|-5-5--3-5-5-3-0-o||
|---------------|----------------||----------------|-----------------||


 Breakdown
|--------------|-------------|--------------|-------------|
|------------2-|--2----2-----|--------------|-------------|
|-4--4--4-4--2-|--2-2--2--2--|-4--4--4-4--6-|--6-6--6--6--|
|-4--2--2-4----|----4-----4--|-4--2--2-4--5-|--5-4--5--4--|
|--------------|-------------|--------------|-------------|
|--------------|-------------|--------------|-------------|


                               D5              G/B
|--------------|-------------|-----------------|-------------------||
|--------------|-------------|-----3-----3-----|-----3-------------||
|--------------|-------------|-----2---2-2-2-0-|-----0-------0-----||
|--------------|-------------|-----0---0-0-0-0-|-----0----0--x-0---||
|--------------|-------------|-0---0---0---0-2-|-----2----2--3-2-0-||
|--------------|-------------|-0---------------|-------------------||
|
|
|--------------|-------------|-----0-----0-----|-----2----3--2-0---||
|------------2-|--2----2-----|---3---3-----3---|---3---3---------3-||
|-4--4--4-4--2-|--2-2--2--2--|-2-------2-----0-|-------------------||
|-4--2--2-4----|----4-----4--|-----------------|-------------------||
|--------------|-------------|-----------------|-------------------||
|--------------|-------------|-----------------|-------------------||


 Out-Chorus
  G5            A                     G5            A
|-----------------|-----------------|-----------------|----------------|
|-----3-----3---2-|-----2---2-2-2-2-|-----3-----3---2-|----2---2-2-2-2-|
|-----0---0-0-0-2-|-----2---2-2-2-2-|-----0---0-0-0-2-|----2---2-2-2-2-|
|-0---0---0-0-0-2-|-----2---2-2-2-2-|-0---0---0-0-0-2-|----2---2-2-2-2-|
|---------------0-|---------0---0---|---------------0-|--------0---0---|
|-5---5---5---5---|-----------------|-5---5---5---5---|----------------|
|
| Gtr II
|-----2-----2-----|-----0-------0---|-----2-----2-----|----0---3-2-0---|
|---3---3-----3---|---3---3---3---3-|---3---3-----3---|--3---3-------3-|
|-0-------0-----2-|---------2-------|-0-------0-----2-|----------------|
|-----------------|-----------------|-----------------|----------------|
|-----------------|-----------------|-----------------|----------------|
|-----------------|-----------------|-----------------|----------------|


  G5            A                   D5             G/B
|-----------------|----------------|-----------------|----------------|
|-----3-----3---2-|----2---2-2-2-2-|-----3-----3-----|----3-----------|
|-----0---0-0-0-2-|----2---2-2-2-2-|-----2---2-2-2-0-|----0-----0-----|
|-0---0---0-0-0-2-|----2---2-2-2-2-|-----0---0-0-0-0-|----0---0-x-0---|
|---------------0-|--------0---0---|-0---0---0---0-2-|----2---2-3-2-0-|
|-5---5---5---5---|----------------|-0---------------|----------------|
|
|-----2-----2-----|----0-------0---|-----0-----0-----|----0-----0-----|
|---3---3-----3---|--3---3---3---3-|---3---3-----3---|--3---3-----3---|
|-0-------0-----2-|--------2-------|-2-------2-----0-|--------0-----2-|
|-----------------|----------------|-----------------|----------------|
|-----------------|----------------|-----------------|----------------|


  D5            G/B                  D5            G/B
|-----------------|----------------|-----------------|----------------|
|-----3-----3-----|--3-------------|-----3-----3-----|--3-------------|
|-----2---2-2-2-0-|--0-------0-----|-----2---2-2-2-0-|--0-------0-----|
|-----0---0-0-0-0-|--0-----0-x-0---|-----0---0-0-0-0-|--0-----0-x-0---|
|-0---0---0---0-2-|--2-----2-3-2-0-|-0---0---0---0-2-|--2-----2-3-2-0-|
|-0---------------|----------------|-0---------------|----------------|
|
|-----0-----0-----|----0-----0-----|-----0-----0-----|----0-------0---|
|---3---3-----3---|--3---3-----3---|---3---3-----3---|--3---3---3---3-|
|---------0-----2-|--------2-----2-|-2-------2-----0-|--------0-------|
|-----------------|----------------|-----------------|----------------|
|-----------------|----------------|-----------------|----------------|
|-----------------|----------------|-----------------|----------------|


  D5
|------------|--------*|
|--3---------|-(3)----*|
|--2---------|-(2)----*|
|--0---------|-(0)----*|
|--0---------|-(0)----*|
|--0---------|-(0)----*|
|
|------------|--------*|
|--3---------|-(3)----*|
|--2---------|-(2)----*|
|--0---------|-(0)----*|
|------------|--------*|
|------------|--------*|

------------------------------------

4.AMMUNITION
Tuning- Standard

Intro Riff: ur gonna play this a lot


e|-----------------------|
B|-4-4-4-4--1-1-1--6-6-6-|
G|-x-x-x-x--x-x-x--x-x-x-|
D|-2-2-2-2--3-3-3--4-4-4-|
A|-----------------------|
E|-----------------------|

Verse Riff:

e|------------------------------|
B|-14-14-14--12-12-12--11-11-11-|
G|-x--x--x---x--x--x---x--x--x--|
D|-12-12-12--10-10-10--9--9--9--|
A|------------------------------|
E|------------------------------|

Chorus Riff


e|------------------------------------------|
B|-4-4-4-4-4-----------9-9-9-9-9------------|
G|-4-4-4-4-4-----------9-9-9-9-9------------|
D|-2-2-2-2-2-7-7-7-7-7-4-4—4-4-4-4-4-4-4-4--|
A|-----------7-7-7-7-7-----------4-4-4-4-4--|
E|-----------5-5-5-5-5-----------2-2-2-2-2--|

e|---------------------|
B|---------------------|
G|---------------------|
D|-7-7-7-7-7-9-9-9-9-9-|
A|-7-7-7-7-7-9-9-9-9-9-|
E|-5-5-5-5-5-7-7-7-7-7-|
play this part 3x

Bridge Riff:

e|---------------------|
B|---------------------|
G|---------------------|
D|-5-5-5-5-5-9-9-9-9-9-|
A|-5-5-5-5-5-9-9-9-9-9-|
E|-3-3-3-3-3-7-7-7-7-7-|

---------------------------------

5.DARE YOU TO MOVE
Tuning- Standard

Verse: /Clean (x2)

E|-0--0--0-0-0-0-0-0-0-0-0-0--|            e|--00000000-00000000--------|
B|-12-12-0-0-0-9-9-0-0-0-0-0--|            B|--00000000-00000000--------|
G|-9--9--9-9-9-9-9-9-9-9-9-9--|  End with: G|--99999999-99999999--------|
D|-11-11-9-9-9-9-9-9-7-7-7-7--|            D|--88888888-77777777--------|
A|----------------------------|            A|--99999999-----------------|
E|----------------------------|            E|---------------------------|


Chorus: w/Dist (x2)
 (In the parenthesis means how many times to strum)

e|-----0------0------0------0---------------|
B|-----0------0------0------0---------------|
G|-----9------8------6------8---------------|
D|-----9-(x4)-9-(x4)-7-(x4)-9---------------|
A|-----7------9------7------9---------------|
E|-----0------7------5------7---------------|

Verse: 2

E|----------------------------------------------------------------------------|
B|----------------------------------------------------------------------------|
G|----------------------------------------------------------------------------|
D|-9/11-xxxx-9/11-xxxx-9/11x7-9/11-xxxx-9/11-xxxx-9/11x7-4-4-4-xxxx-4-4-4-xxx-|
A|-9/11-xxxx-9/11-xxxx-9/11x7-9/11-xxxx-9/11-xxxx-9/11x7-4-4-4-xxxx-4-4-4-xxx-|
E|-7/9--xxxx-7/9--xxxx-7/9-x5-7/9--xxxx-7/9--xxxx-7/9-x5-2-2-2-xxxx-2-2-2-xxx-|


E|----------------------------------------------------------------------------|
B|----------------------------------------------------------------------------|
G|----------------------------------------------------------------------------|
D|x4x-7-7-7xxxx-7-7-7xxxx-7-7-7-9/11-xxxx-9/11-xxxx-9/11x7~-4-4-4xxxx4-4-4xxx-|
A|x4x-7-7-7xxxx-7-7-7xxxx-7-7-7-9/11-xxxx-9/11-xxxx-9/11x7~-4-4-4xxxx4-4-4xxx-|
E|x2x-5-5-5xxxx-5-5-5xxxx-5-5-5-7/9--xxxx-7/9--xxxx-7/9-x5~-2-2-2xxxx2-2-2xxx-|


E|--------------------------|
B|--------------------------|
G|--------------------------|
D|x-4x7-7-7xxxx-7-7-7xxxx-7-|
A|x-4x7-7-7xxxx-7-7-7xxxx-7-|
E|x-2x5-5-5xxxx-5-5-5xxxx-5-|


   (Go back to chorus again)


Bridge:

E|---------------------------------------------------------------------------|
B|---------------------------------------------------------------------------|
G|-9-9-9-9-9-9-----------------9-9-9-9-9-9-----------------------------------|
D|-9-9-9-9-9-9-7-7-7-7-7-7-7-7-9-9-9-9-9-9-7-7-7-7-7-7-7-7-11-11-11-11-11-11-|
A|-7-7-7-7-7-7-7-7-7-7-7-7-7-7-7-7-7-7-7-7-7-7-7-7-7-7-7-7-11-11-11-11-11-11-|
E|-0-0-0-0-0-0-5-5-5-5-5-5-5-5-0-0-0-0-0-0-5-5-5-5-5-5-5-5-9--9--9--9--9--9--|

E|-------------------|
B|-------------------|
G|-------------------|
D|-7-7-7-7-7-7-7-9~~-|
A|-7-7-7-7-7-7-7-9~~-|
E|-5-5-5-5-5-5-5-7~~-|


(Solo) w/Dist

e|-----00/00000000/0-0-0-0-0-0-0-0-/0-0-0-0-0-0-0-0-/0-0-0-0-0-0-0-0-/0-0--|
B|-----77/55555555/1010101010101010/1212121212121212/1616161616161616/1717-|
G|-------------------------------------------------------------------------|
D|-------------------------------------------------------------------------|
A|-------------------------------------------------------------------------|
E|-------------------------------------------------------------------------|

Outro (x2) w/Dist

e|-----0------0------0------0---------------|
B|-----0------0------0------0---------------|
G|-----9------8------6------8---------------|
D|-----9-(x4)-9-(x4)-7-(x4)-9---------------|
A|-----7------9------7------9---------------|
E|-----0------7------5------7---------------|

End on this chord:
e|----0-----------------------|
B|----0-----------------------|
G|----1-----------------------|
D|----2--(Let-ring)-----------|
A|----2-----------------------|
E|----0-----------------------|

------------------------------------

6.REDEMPTION
Tuning- Standard

Intro (Chords):
E, G, C, G, B, C

Solo thing:    (Start to play when last C is starting on intro)
E-------------------------------------------------------------------------|
B-12---12-12/10-10-10-10-10-10/8-8-8-8-8-8/5-5-5-5-5-5/3-3-3-3-0-1-0-1-0--|
G-------------------------------------------------------------------------|
D-------------------------------------------------------------------------|

Verse:
E, G, C, G, B, C
E, G, C, G, A, B
On the last B. Only hit it once and then start on the chorus.

Chorus:
E, A, B
E, A, C
C, A, B

At the part when he goes "and ill come aliiiiiiiiiiiiiiiiiiiive" play this
E, G, C    x2

Bridge:
E    (to me it sounds better on the bar chord(on the 7th fret) to me but play it how u want.

Last note is an E chord

-----------------------------------

7.THE BEAUTIFUL LETDOWN

DONT KNOW YET!!!

------------------------------------

8.GONE
Tuning- Standard

Intro
  Q=90
  N.C.
 4/4
  Gtr I
  Q   Q   Q   Q    Q   Q   Q   Q    Q  Q  Q   Q    Q   Q   Q  Q
|-----0-------0--|-----0-------0--|----0------0--|-----0------0---|
|----(5)------9--|----(5)------9--|----7------9--|----(5)-----7---|
|-----9------11--|-----9------11--|----9-----11--|-----9------9---|
|----------------|----------------|--------------|----------------|
|----------------|----------------|--------------|----------------|
|----------------|----------------|--------------|----------------|


  E5                   B5    E5                   B5
  Gtr II
   S  S E  Q    S  S E  Q     S  S E  Q    S  S E  Q
   |  |         |  |    |     |  |         |  |    |
   /  /         /  /    /     /  /         /  /    /

  Gtr I
   Q       Q    Q       Q     Q       Q    Q       Q
|----------0------------0--|----------0------------0--|
|---------(5)-----------9--|---------(5)-----------9--|
|----------9-----------11--|----------9-----------11--|
|--------------------------|--------------------------|
|--------------------------|--------------------------|
|--------------------------|--------------------------|
|
| Gtr III
|  S  S E  Q    S  S E  Q     S  S E  Q    S  S E  Q
|--------------------------|--------------------------|
|--------------------------|--------------------------|
|-13-13--------13-13---11--|-13-13--------13-13---11--|
|--------------------------|--------------------------|
|-11-11--------11-11----9--|-11-11--------11-11----9--|
|--0--0---------0--0-------|--0--0---------0--0-------|


  E5               B5    E5                 B5
   S  S E Q  S S E  Q    S S E  Q    S  S E  Q
   |  |      | |    |    | |         |  |    |
   /  /      / /    /    / /         /  /    /

   Q      Q  Q      Q    Q      Q    Q       Q
|---------0---------0--|--------0------------0----||
|---------7---------9--|-------(5)-----------7----||
|---------9--------11--|--------9------------9----||
|----------------------|--------------------------||
|----------------------|--------------------------||
|----------------------|--------------------------||
|
|  S  S E Q  S S E  Q    S S E  Q    S  S E  Q
|----------------------|--------------------------||
|----------------------|--------------------------||
|-13-13------9-9---11--|-9-9--------13-13---11----||
|----------------------|--------------------------||
|-11-11------7-7----9--|-7-7--------11-11----9----||
|--0--0------0-0-------|-0-0---------0--0---------||


   Verse 1
    E5                   B5    E5                   B5
     S  S E  Q    S  S E  Q     S  S E  Q    S  S E  Q
     |  |         |  |    |     |  |         |  |    |
     /  /         /  /    /     /  /         /  /    /

     Q       Q    Q       Q     Q       Q    Q       Q
||-----------0------------0--|----------0------------0--|
||o---------(5)-----------9--|---------(5)-----------9--|
||-----------9-----------11--|----------9-----------11--|
||---------------------------|--------------------------|
||o--------------------------|--------------------------|
||---------------------------|--------------------------|
|
|    S  S E  Q    S  S E  Q     S  S E  Q    S  S E  Q
||---------------------------|--------------------------|
||o--------------------------|--------------------------|
||--13-13--------13-13---11--|-13-13--------13-13---11--|
||---------------------------|--------------------------|
||o-11-11--------11-11----9--|-11-11--------11-11----9--|
||---0--0---------0--0-------|--0--0---------0--0-------|


  E5               B5    E5                 B5
   S  S E Q  S S E  Q    S S E  Q    S  S E  Q
   |  |      | |    |    | |         |  |    |
   /  /      / /    /    / /         /  /    /

   Q      Q  Q      Q    Q      Q    Q       Q
|---------0---------0--|--------0------------0----||
|---------7---------9--|-------(5)-----------7---o||
|---------9--------11--|--------9------------9----||
|----------------------|--------------------------||
|----------------------|-------------------------o||
|----------------------|--------------------------||
|
|  S  S E Q  S S E  Q    S S E  Q    S  S E  Q
|----------------------|--------------------------||
|----------------------|-------------------------o||
|-13-13------9-9---11--|-9-9--------13-13---11----||
|----------------------|--------------------------||
|-11-11------7-7----9--|-7-7--------11-11----9---o||
|--0--0------0-0-------|-0-0---------0--0---------||


 Pre-Chorus
  $                                     To Coda
  Aadd9       Badd11      Aadd9       Badd11
   W           W           W           Q  Q  H
|-^0--------|-^0--------|-^0--------|-^0-----------||
|-^0--------|-^0--------|-^0--------|-^0-----------||
|-^6--------|-^8--------|-^6--------|-^8-----------||
|-^7--------|-^9--------|-^7--------|-^9-----------||
|-^7--------|-^9--------|-^7--------|-^9-----------||
|-^5--------|-^7--------|-^5--------|-^7-----------||


 Chorus 1
  E5                                A5
  Gtr II
   Q    Q    H                       Q    Q    H
   |                                 |
   /                                 /

  Gtr I
   E E  E E  S S S  S  S  S  S  S    E E  E E  S S S  S  S  S  S  S
|-12---12---12---x-12-12-12-12-12-|-12---12---12---x-12-12-12-12-12-|
|---------------------------------|---------------------------------|
|--9----9----9---x--9--9--9--9--9-|--9----9----9---x--9--9--9--9--9-|
|---------------------------------|---------------------------------|
|---------------------------------|---------------------------------|
|---------------------------------|---------------------------------|


  C#5                               C5
   Q    Q    H                       Q    Q    H
   |                                 |
   /                                 /

   E E  E E  S S S  S  S  S  S  S    E E  E E  S S S  S  S  S  S  S
|-12---12---12---x-12-12-12-12-12-|-12---12---12---x-12-12-12-12-12---|
|---------------------------------|-----------------------------------|
|--9----9----9---x--9--9--9--9--9-|--9----9----9---x--9--9--9--9--9---|
|---------------------------------|-----------------------------------|
|---------------------------------|-----------------------------------|
|---------------------------------|-----------------------------------|


  E5               B5    E5               B5
  S S E  Q   S S E  Q    S S E  Q   S S E  Q
  | |        | |    |    | |        | |    |
  / /        / /    /    / /        / /    /

  Q      Q   Q      Q    Q      Q   Q      Q
|--------0----------0--|--------0----------0--||
|-------(5)---------9--|-------(5)---------9--||
|--------9---------11--|--------9---------11--||
|----------------------|----------------------||
|----------------------|----------------------||
|----------------------|----------------------||


 Verse 2
  E5                   B5    E5                   B5
   S  S E  Q    S  S E  Q     S  S E  Q    S  S E  Q
   |  |         |  |    |     |  |         |  |    |
   /  /         /  /    /     /  /         /  /    /

   Q       Q    Q       Q     Q       Q    Q       Q
|----------0------------0--|----------0------------0--|
|---------(5)-----------9--|---------(5)-----------9--|
|----------9-----------11--|----------9-----------11--|
|--------------------------|--------------------------|
|--------------------------|--------------------------|
|--------------------------|--------------------------|
|
| Gtr III
|  S  S E  Q    S  S E  Q     S  S E  Q    S  S E  Q
|--------------------------|--------------------------|
|--------------------------|--------------------------|
|-13-13--------13-13---11--|-13-13--------13-13---11--|
|--------------------------|--------------------------|
|-11-11--------11-11----9--|-11-11--------11-11----9--|
|--0--0---------0--0-------|--0--0---------0--0-------|


  E5                 B5    E5                   B5
   S  S E Q   S  S E  Q     S  S E  Q    S  S E  Q
   |  |       |  |    |     |  |         |  |    |
   /  /       /  /    /     /  /         /  /    /

   Q      Q   Q       Q     Q       Q    Q       Q
|---------0-----------0--|----------0------------0----|
|---------7-----------9--|---------(5)-----------7----|
|---------9----------11--|----------9------------9----|
|------------------------|----------------------------|
|------------------------|----------------------------|
|------------------------|----------------------------|
|
|  S  S E Q   S  S E  Q     S  S E  Q    S  S E  Q
|------------------------|----------------------------|
|------------------------|----------------------------|
|-13-13------13-13---11--|-13-13--------13-13---11----|
|------------------------|----------------------------|
|-11-11------11-11----9--|-11-11--------11-11----9----|
|--0--0-------0--0-------|--0--0---------0--0---------|


  E5                   B5    E5                   B5
   S  S E  Q    S  S E  Q     S  S E  Q    S  S E  Q
   |  |         |  |    |     |  |         |  |    |
   /  /         /  /    /     /  /         /  /    /

   Q       Q    Q       Q     Q       Q    Q       Q
|----------0------------0--|----------0------------0--|
|---------(5)-----------9--|---------(5)-----------9--|
|----------9-----------11--|----------9-----------11--|
|--------------------------|--------------------------|
|--------------------------|--------------------------|
|--------------------------|--------------------------|
|
|  S  S E  Q    S  S E  Q     S  S E  Q    S  S E  Q
|--------------------------|--------------------------|
|--------------------------|--------------------------|
|-13-13--------13-13---11--|-13-13--------13-13---11--|
|--------------------------|--------------------------|
|-11-11--------11-11----9--|-11-11--------11-11----9--|
|--0--0---------0--0-------|--0--0---------0--0-------|


                                   D.S. al Coda
  E5               B5    E5                 B5
   S  S E Q  S S E  Q    S S E  Q    S  S E  Q
   |  |      | |    |    | |         |  |    |
   /  /      / /    /    / /         /  /    /

   Q      Q  Q      Q    Q      Q    Q       Q
|---------0---------0--|--------0------------0----||
|---------7---------9--|-------(5)-----------7----||
|---------9--------11--|--------9------------9----||
|----------------------|--------------------------||
|----------------------|--------------------------||
|----------------------|--------------------------||
|
|  S  S E Q  S S E  Q    S S E  Q    S  S E  Q
|----------------------|--------------------------||
|----------------------|--------------------------||
|-13-13------9-9---11--|-9-9--------13-13---11----||
|----------------------|--------------------------||
|-11-11------7-7----9--|-7-7--------11-11----9----||
|--0--0------0-0-------|-0-0---------0--0---------||


 Chorus 2
  &
  E5                                A5
   Q    Q    H                       Q    Q    H
   |                                 |
   /                                 /

   E E  E E  S S S  S  S  S  S  S    E E  E E  S S S  S  S  S  S  S
|-12---12---12---x-12-12-12-12-12-|-12---12---12---x-12-12-12-12-12-|
|---------------------------------|---------------------------------|
|--9----9----9---x--9--9--9--9--9-|--9----9----9---x--9--9--9--9--9-|
|---------------------------------|---------------------------------|
|---------------------------------|---------------------------------|
|---------------------------------|---------------------------------|


  C#5                               B5
   Q    Q    H                       Q    Q    H
   |                                 |
   /                                 /

   E E  E E  S S S  S  S  S  S  S    E E  E E  S S S  S  S  S  S  S
|-12---12---12---x-12-12-12-12-12-|-12---12---12---x-12-12-12-12-12---|
|---------------------------------|-----------------------------------|
|--9----9----9---x--9--9--9--9--9-|--9----9----9---x--9--9--9--9--9---|
|---------------------------------|-----------------------------------|
|---------------------------------|-----------------------------------|
|---------------------------------|-----------------------------------|


  E5                                A5
   Q    Q    H                       Q    Q    H
   |                                 |
   /                                 /

   E E  E E  S S S  S  S  S  S  S    E E  E E  S S S  S  S  S  S  S
|-12---12---12---x-12-12-12-12-12-|-12---12---12---x-12-12-12-12-12-|
|---------------------------------|---------------------------------|
|--9----9----9---x--9--9--9--9--9-|--9----9----9---x--9--9--9--9--9-|
|---------------------------------|---------------------------------|
|---------------------------------|---------------------------------|
|---------------------------------|---------------------------------|


  C#5                               C5
   Q    Q    H                       Q    Q    H
   |                                 |
   /                                 /

   E E  E E  S S S  S  S  S  S  S    E E  E E  S S S  S  S  S  S  S
|-12---12---12---x-12-12-12-12-12-|-12---12---12---x-12-12-12-12-12---|
|---------------------------------|-----------------------------------|
|--9----9----9---x--9--9--9--9--9-|--9----9----9---x--9--9--9--9--9---|
|---------------------------------|-----------------------------------|
|---------------------------------|-----------------------------------|
|---------------------------------|-----------------------------------|


  E5             B5   E5             B5
  S S E Q  S S E Q    S S E Q  S S E Q
|-------------------|-------------------||
|-------------------|-------------------||
|----------------4--|----------------4--||
|-2-2------2-2---4--|-2-2------2-2---4--||
|-2-2------2-2---2--|-2-2------2-2---2--||
|-0-0------0-0------|-0-0------0-0------||


 Bridge
  E5                         G5
  Gtr II
  E E E E E E  E       E     E E E E E E  E       E
  | | | | | |  |       |     | | | | | |  |       |
  / / / / / /  /       /     / / / / / /  /       /

  Gtr I
  H       Q    E      +E     H       Q    E      +E
|--------------------------|--------------------------|
|--------------------------|--------------------------|
|-------------11b12==(11)r-|-------------11b12==(11)r-|
|--------------------------|--------------------------|
|--------------------------|--------------------------|
|--------------------------|--------------------------|


  A5                  C5
  E E E E E E  E  E    E       E    E E  E       E    E  E
  | | | | | |  |  |    |       |    | |  |       |    |  |
  / / / / / /  /  /    /       /    / /  /       /    /  /

  H       Q    E  E    E      +E    Q    E      +E    E  E
|-------------17----|---------------------------------------|
|----------------17-|-------------------15b17==(15)r-15-----|
|-------------------|-11b12==(11)r-11-------------------12--|
|-------------------|---------------------------------------|
|-------------------|---------------------------------------|
|-------------------|---------------------------------------|


  E5                 G5                A5                C5
   E E E E E E E E   E E E E E E E E   E E E E E E E E   E E Q  E E E +E
   | | | | | | | |   | | | | | | | |   | | | | | | | |   | | |  | | |  |
   / / / / / / / /   / / / / / / / /   / / / / / / / /   / / /  / / /  /

   H       H         W                 W                 W
|------------------|-----------------|-----------------|------------------||
|------------------|-----------------|-----------------|------------------||
|------------------|-----------------|-----------------|------------------||
|-14---------------|-----------------|-----------------|------------------||
|------------------|-----------------|-----------------|------------------||
|------------------|-----------------|-----------------|------------------||


 Breakdown
  (E5)                  (A5)
  S E. S e e e S S E.   Q  S e e e S S E.
|---------------------|-------------------|
|---------------------|-------------------|
|---------------------|-------------------|
|---------------------|----4p2-2-2-x-4p2--|
|-7-7--9p7-7-7-x-9p7--|-0-----------------|
|-0-------------------|-------------------|


  (C#5)               (A5)
  Q  S e e e S S E.   Q  S e e e S S  S E
|-------------------|---------------------|
|-------------------|---------------------|
|-------------------|-------------------9-|
|----6---------6----|----4p2-2-2-x------9-|
|-4----4-4-4-x---4--|-0------------9s11---|
|-------------------|---------------------|


  (E5)                (A5)                (C#5)               A5
  Q  S e e e S S E.   Q  S e e e S S E.   Q  S e e e S S E.   E E Q  H
|-------------------|-------------------|-------------------|-------------||
|-------------------|-------------------|-------------------|-------------||
|-------------------|-------------------|-------------------|-------------||
|-------------------|----4p2-2-2-x-4p2--|----6---------6----|-2-----------||
|-7--9p7-7-7-x-9p7--|-0-----------------|-4----4-4-4-x---4--|-0-----------||
|-0-----------------|-------------------|-------------------|-------------||


   Outro
    E5                                A5
    Gtr II
     Q    Q    H                       Q    Q    H
     |                                 |
     /                                 /

    Gtr I
     E E  E E  S S S  S  S  S  S  S    E E  E E  S S S  S  S  S  S  S
||--12---12---12---x-12-12-12-12-12-|-12---12---12---x-12-12-12-12-12-|
||o---------------------------------|---------------------------------|
||---9----9----9---x--9--9--9--9--9-|--9----9----9---x--9--9--9--9--9-|
||----------------------------------|---------------------------------|
||o---------------------------------|---------------------------------|
||----------------------------------|---------------------------------|


  C#5                               A5
   Q    Q    H                       Q    Q    H
   |                                 |
   /                                 /

   E E  E E  S S S  S  S  S  S  S    E E  E E  S S S  S  S  S  S  S   4x
|-12---12---12---x-12-12-12-12-12-|-12---12---12---x-12-12-12-12-12---||
|---------------------------------|----------------------------------o||
|--9----9----9---x--9--9--9--9--9-|--9----9----9---x--9--9--9--9--9---||
|---------------------------------|-----------------------------------||
|---------------------------------|----------------------------------o||
|---------------------------------|-----------------------------------||


  E5                                A5
   Q    Q    H                       Q    Q    H
   |                                 |
   /                                 /

   E E  E E  S S S  S  S  S  S  S    E E  E E  S S S  S  S  S  S  S
|-12---12---12---x-12-12-12-12-12-|-12---12---12---x-12-12-12-12-12-|
|---------------------------------|---------------------------------|
|--9----9----9---x--9--9--9--9--9-|--9----9----9---x--9--9--9--9--9-|
|---------------------------------|---------------------------------|
|---------------------------------|---------------------------------|
|---------------------------------|---------------------------------|


  C#5
   Q    Q    H
   |
   /

   E E  E E  S S S  S  S  S  S  S
|-12---12---12---x-12-12-12-12-12-*|
|---------------------------------*|
|--9----9----9---x--9--9--9--9--9-*|
|---------------------------------*|
|---------------------------------*|
|---------------------------------*|

-----------------------------------------

9.ON FIRE
Tuning- Standard

 *C*                                       *G*

Chords needed:                            Chords needed:

C2     x32033                             G2     300233
G      320003                             D      xx0232
Am7    x02010                             Em7    020000
F      122111                             C      x32010


Verses:                                   Verses:
C2    G                                   G2    D
Am7   F   4x                              Em7   C    4x


Chorus 1                                  Chorus 1
C2    G   Am7   F                         G2    D   Em7  C
C2    G   C2                              G2    D   G2


Back to verse                             Back to verse


Chorus 2                                  Chorus 2
C2    G   Am7   F                         G2    D   Em7  C
C2    G   Am7   F                         G2    D   Em7  C
Am7   F                                   Em7   C


Back to verse pattern                     Back to verse pattern

-------------------------------------------

10.ADDING TO THE NOISE
Tuning- Standard

intro:                       intro/chorus:

e---------------------------|-------------------]
b---------------------------|-------------------]
g---5-7--7------------------|7-7----------------]
d---5-7--7--777---9999999---|7-7---777-999/7/9/7]
a---3-5--5--777---9999999---|5-5---777-999/7/9/7]
E-----------555---7777777---|------555-777/5/7/5]


verse: i really dont no if this is the right rythem but
its pretty darn close

pm--------------------]
e---------------------]
b---------------------]
g---77777777----------]
d---77777777-777-99999]
a---55555555-777-99999]
E------------555-77777]

------------------------------------

11.TWENTY-FOUR
Tuning- Standard

Verse Pt. 1
"Twenty four oceans..."
    G     C     D     G    Em     C     D     C     G    Em
e|--3-----0-----2-----3-----0-----0-----2-----0-----3-----0---||
B|--3-----1-----3-----3-----0-----1-----3-----1-----3-----0---||
G|--0-----0-----2-----0-----0-----0-----2-----0-----0-----0---||
D|--0-----2-----0-----0-----2-----2-----0-----2-----0-----2---||
A|--x-----3-----x-----x-----2-----3-----x-----3-----x-----2---||
E|--3-----x-----x-----3-----0-----x-----x-----x-----3-----0---||

Verse Pt. 2
"Still I'm singing..."
    C     D     G    Em       C      D
e|--0-----2-----3-----0-------0------2~-----------------------||
B|--1-----3-----3-----0-------1------3~-----------------------||
G|--0-----2-----0-----0-------0------2~-----------------------||
D|--2-----0-----0-----2--x4---2------0~-----------------------||
A|--3-----x-----x-----2-------3------x------------------------||
E|--x-----x-----3-----0-------x------x------------------------||

Piano Interlude (No Guitar)
"Twenty four reasons..."

Chorus
"See I'm not copping out..."
    G    Em     C     D
e|--3-----0-----0-----2---------------------------------------||
B|--3-----0-----1-----3---------------------------------------||
G|--0-----0-----0-----2---------------------------------------||
D|--0-----2-----2-----0--x2-----------------------------------||
A|--x-----2-----3-----x---------------------------------------||
E|--3-----0-----x-----x---------------------------------------||

Outro Verse
"I want to see miracles..."
    G     C     D     G    Em     C     D
e|--3-----0-----2-----3-----0-----0-----2------------------||
B|--3-----1-----3-----3-----0-----1-----3------but second--||
G|--0-----0-----2-----0-----0-----0-----2-----time, switch-||
D|--0-----2-----0-----0-----2-----2-----0--x2---the final--||
A|--x-----3-----x-----x-----2-----3-----x-----D chord with-||
E|--3-----x-----x-----3-----0-----x-----x---another C chord||

ENJOY!!!!
comments
print report bad tab
9 comments total. Showing first comments.
0 reply
r a c e t h e wrote on January 29 2005, 12:00 am

nice

0 reply
johnc27 wrote on April 10 2005, 12:00 am

awesome

0 reply
cgplaya wrote on May 14 2005, 12:00 am

this is really great
i found a really slight error tho (nothing major at all)
for this is your life play:
E|------------------------------|
B|------------------------------|
G|------------------------------|
D|-------------------------6----|
A|-7?--4-7-4?--4-7?--4?--4?-----|
E|?--4-------4---------5-----7--|

not

E|------------------------------|
B|------------------------------|
G|------------------------------|
D|-------------------------6----|
A|-7?--4-7-4?--4-7?--4?--4?--7--|
E|?--4-------4---------5--------|

just a one note change
otherwise this is definitely five-star material

I want to post or [tab]
guest
You may want to rate the tab now too:
select rating
Please do not post tabs as comments. Select "correction" instead!