Oops, an error
Loading. Please wait.

Blinding Light Bass Tab

826 views 12 this week
no commentswrite comment
1 2 3 4 5
excellent!
x 1
Autoscroll
+/-
esc
set tempo
stop
Contributor
WARNING: You are trying to view
                                    content from Ultimate-Guitar.com
                                    in an unauthorized application,
                                    which is prohibited.

                                    Please use an official Ultimate
                                    Guitar Tabs application for iPhone,
                                    iPad or Android to access legitimate
                                    chords, guitar, bass, and drum tabs
                                    from Ultimate-Guitar.com database.

                                    Type "ultimate guitar tabs" in Apple
                                    App Store's or Android Market's
                                    search to find the application.
-----------------------------------------------------------------------------
                              BLINDING LIGHT                  SWITCHFOOT
-----------------------------------------------------------------------------

Tabbed by:hurricaneherman
Tuning:Standard

~INTRO~

No bass

~VERSE~

G|----------------------------------------------------------------|
D|------------------------------------------------------/-5h8-----|
A|3---3-------3---3---3-3-7-5---------3---3-------3---3-----------|X4
E|----------------------------------------------------------------|
   Hey boy don't believe em the old lies never could come true
    Hey boy don't believe em everything that they told you to
  Hey boy don't believe em we're the nation that eats our youth
      Hey boy don't believe em none of us are bullet proof

G|----------------------------------------------------------------|
D|------------------------------------------------------/-5h8-----|
A|3---3-------3---3---3-3-7-5---------3---3-------3---3-----------|
E|----------------------------------------------------------------|
                              Yeah

~PRE-CHORUS~

G|----------------------------------------------------------------|
D|----------------------------------------------------------------|
A|0---0---0-------2-------2---2-----2-0---0---0---0-0-2---2-2---2-|
E|----------------------------------------------------------------|
  Deep down there's a boy inside asleep waiting for the sun to rise

G|--------------------------------|
D|--------------------------------|
A|--------------------------------|
E|1------/3-----------------------|
         Wake up Wake up

~CHORUS~

G|----------------------------------------------------------------|
D|----------------------------------------------------------------|
A|3---3---3-------3---3---3---3-3---------------------------------|
E|--------------------------------3---3---3-------3---3---3---3-3-|
Still looking for the blinding light still looking for the reason why

G|----------------------------------------------------------------|
D|----------------------------------------------------------------|
A|----------------------------------------------------------------|
E|5---5---5-------5---5---5---5-5-1---1---1-------1---3-3---3-3-3-|
  Still looking for the sun to shine to take me higher and higher

G|----------------------------------------------------------------|
D|----------------------------------------------------------------|
A|3---3---3-------3---3---3---3-3---------------------------------|
E|--------------------------------3---3---3-------3---3---3---3-3-|
        All my life I've been living in the darkest night

G|----------------------------------------------------------------|
D|----------------------------------------------------------------|
A|------------------------------------------------6---6---6---6--\|
E|5---5---5-------5---5---5---5-5-1---1---1-----------------------|
 Still looking for the blinding light to take me higher and higher

~INTERLUDE~

G|----------------------------------------------------------------|
D|-------------------------------------------------------/5h8-----|
A|3---3---3-------3---3---3---3-1-----3---3-------3---3-----------|
E|----------------------------------------------------------------|

~VERSE 2~

G|----------------------------------------------------------------|
D|------------------------------------------------------/-5h8-----|
A|3---3-------3---3---3-3-7-5-------3---3-------3---3-------------|
E|----------------------------------------------------------------|
    Hey girl be yourself now don't believe what they told you to

G|----------------------------------------------------------------|
D|----------------------------------------------------------------|
A|3---3-------3---3---3-3-7-5-------3---3-----3---3---3-7-5-------|
E|----------------------------------------------------------7-5-0-|
   Hey girl be yourself now your skin's more than a pin-up suit

G|----------------------------------------------------------------|
D|------------------------------------------------------5--/13---\|
A|3---3-------3---3---3-3-7-5-------3---3-------3---5-------------|
E|----------------------------------------------------------------|
    Hey girl don't conform now no one else got soul like you

G|----------------------------------------------------------------|
D|------------------------------------------------------/-5h8-----|
A|3---3-------3---3---3-3-7-5-------3---3-------3---3-------------|
E|----------------------------------------------------------------|
     Hey girl your a strong one but none of us are bullet proof

G|----------------------------------------------------------------|
D|------------------------------------------------------/-5h8-----|
A|3---3-------3---3---3-3-7-5-------3---3-------3---3-------------|
E|----------------------------------------------------------------|
                             Yeah

~PRE-CHORUS 2~

Repeat with these lyrics

Deep down there's a hope inside
You've got wings but you're scared to fly
Wake up wake up

~CHORUS 2~

G|----------------------------------------------------------------|
D|----------------------------------------------------------------|
A|3---3---3-------3---3---3---3-3---------------------------------|
E|--------------------------------3---3---3-------3---3---3---3-3-|
Still looking for the blinding light still looking for the reason why

G|----------------------------------------------------------------|
D|----------------------------------------------------------------|
A|----------------------------------------------------------------|
E|5---5---5-------5---5---5---5-5-1---1---1-------1---3-3---3-3-3-|
  Still looking for the sun to shine to take me higher and higher

G|----------------------------------------------------------------|
D|----------------------------------------------------------------|
A|3---3---3-------3---3---3---3-3---------------------------------|
E|--------------------------------3---3---3-------3---3---3---3-3-|
        All my life I've been living in the darkest night

G|----------------------------------------------------------------|--------|
D|----------------------------------------------------------------|--------|
A|------------------------------------------------6---6---6---6---|-------\|
E|5---5---5-------5---5---5---5-5-1---1---1-----------------------|--------|
 Still looking for the blinding light to take me higher and higher

~INTERLUDE 2~

G|----------------------------------------------------------------|
D|----------------------------------------------------------------|
A|3---3---3-------3---3---3---3-1-------------3-3-6-6-8-8-13--\---|
E|----------------------------------------------------------------|

G|----------------------------------------------------------------|
D|----------------------------------------------------------------|
A|3---3---3-------3---3---3---3-1-------13--15----1513108-108-5-3-|
E|----------------------------------------------------------------|

~BRIDGE~

G|----------------------------------------------------------------|
D|----------------------------------------------------------------|
A|0---0---0-------2-------2---2-----2-0---0---0---0-0-------------|
E|----------------------------------------------------3---3-3---3-|
Deep down there's a hope inside brighter than the fears in my mind

G|----------------------------------------------------------------|
D|----------------------------------------------------------------|
A|0---0---0-------2-------2---2-----2-0---0---0---0-0-2---2-2---2-|
E|----------------------------------------------------------------|
I keep looking for the blinding light it's the hope that keeps me alive

~PRE-CHORUS 3~

G|--------------------------------|
D|--------------------------------|
A|--------------------------------|
E|1------/3-----------------------|
         Wake up Wake up

~OUTRO-CHORUS~

G|----------------------------------------------------------------|
D|----------------------------------------------------------------|
A|3---3---3-------3---3---3---3-3---------------------------------|
E|--------------------------------3---3---3-------3---3---3---3-3-|
Keep looking for the blinding light keep looking for the reason why

G|----------------------------------------------------------------|
D|----------------------------------------------------------------|
A|----------------------------------------------------------------|
E|5---5---5-------5---5---5---5-5-1---1---1-------1---3-3---3-3-3-|
   Keep looking for the sun to shine to take me higher and higher

G|----------------------------------------------------------------|
D|----------------------------------------------------------------|
A|3---3---3-------3---3---3---3-3---------------------------------|
E|--------------------------------3---3---3-------3---3---3---3-3-|
       All my life I've been living in the darkest night

G|----------------------------------------------------------------|
D|----------------------------------------------------------------|
A|------------------------------------------------3-3/1010121210-\|
E|5---5---5-------5---5---5---5-5-1---1---1-----------------------|
  Still looking for the sun to rise to take me higher and higher

G|----------------------------------------------------------------|
D|----------------------------------------------------------------|
A|3---3---3-------3---3---3---3-3---------------------------------|
E|--------------------------------3---3---3-------3---3---3---3-3-|
          The blinding light the blinding light

G|----------------------------------------------------------------|
D|----------------------------------------------------------------|
A|----------------------------------------------------------------|
E|5---5---5-------5---5---5---5-5-1---1---1-------1---3-3---3-3-3-|
   I've been waiting all my life to take me higher and higher

G|----------------------------------------------------------------|
D|----------------------------------------------------------------|
A|3---3---3-------3---3---3---3-3---------------------------------|
E|--------------------------------3---3---3-------3---3---3---3-3-|
    The blinding light you're the vision that gives me sight

G|----------------------------------------------------------------|--------|
D|----------------------------------------------------------------|--------|
A|------------------------------------------------6---6---6---6---|-------\|
E|5---5---5-------5---5---5---5-5-1---1---1-----------------------|--------|
        Oh the blinding light take me higher and higher

G|--------------------------------|
D|--------------------------------|
A|3-------------------------------|
E|--------------------------------|

=============================================================================
h = hammer on
/ = slide up
\ = slide down

If there is no dash between the numbers that means its not 1 and 0, it's 10.
Thanks for checking my tab. 

Peace, Love, I'm out.
comments
We did not receive enough feedback on this tab! Please rate:
print report bad tab
1 2 3 4 5
I want to post or [tab]
guest
You may want to rate the tab now too:
select rating
Please do not post tabs as comments. Select "correction" instead!