Oops, an error
Loading. Please wait.

Blues Tab

20,964 views 39 this week
2 commentsread comments
1 2 3 4 5
excellent!
x 10
add to favorites launch autoscroll
font size
0
reset
Autoscroll
+/-
esc
set tempo
stop
Contributor
Difficulty
novice
WARNING: You are trying to view
                                    content from Ultimate-Guitar.com
                                    in an unauthorized application,
                                    which is prohibited.

                                    Please use an official Ultimate
                                    Guitar Tabs application for iPhone,
                                    iPad or Android to access legitimate
                                    chords, guitar, bass, and drum tabs
                                    from Ultimate-Guitar.com database.

                                    Type "ultimate guitar tabs" in Apple
                                    App Store's or Android Market's
                                    search to find the application.
intro: guitar 1 (acoustic)
e-5--5--5--5--2--2--2--2--5--5--5--5--2--2--0--0--->
B-7--7--7--7--3--3--3--3--7--7--7--7--3--3--3--3--->
G--7--7--7--7--0--0--0--0--7--7--7--7--0--0--3--3-->
D-------------------------------------------------->
A-------------------------------------------------->
E-------------------------------------------------->

verse 1: guitar 1
e-5--5--5--5--2--2--2--2--5--5--5--5--2--2--2--2---------------------->
B-7--7--7--7--3--3--3--3--7--7--7--7--3--3--3--3---------------------->
G--7--7--7--7--0--0--0--0--7--7--7--7--0--0--0--0-2-2-2-2-2-2-2-2-2-2->
D--------------------------------------------------------------------->
A-------------------------------------------------0-0-0-0-0-0-0-0-0-0->
E--------------------------------------------------------------------->
is this the new year or just another night?  is this the new fear or just
another fright?  is this the new tear or just another desperation?

fill: guitar 1
e-5--5--5--5--2--2--2--2-->
B-7--7--7--7--3--3--3--3-->
G--7--7--7--7--0--0--0--0->
D------------------------->
A------------------------->
E------------------------->

verse 1: guitar 1
e-------------2--2--2--2--------------2--2--2--2--3--3--3--3--2--2--2--2--->
B-55-77-55-77-3--3--3--3--55-77-77-55-3--3--3--3--5--5--5--5--5--5--5--5--->
G-44-44-44-44--0--0--0--0-44-44-44-44--0--0--0--0--4--4--4--4--4--4--4--4-->
D-------------------------------------------------------------------------->
A-------------------------------------------------------------------------->
E-------------------------------------------------------------------------->
is this the finger or just another fist?  is this the Kingdom or just a hit
and miss?  a misdirection, most in all this desperation

fill: guitar 1
e-------------2--2--2--2--->
B-55-55-77-77-3--3--3--3--->
G-44-44-44-44--0--0--0--0-->
D-------------------------->
A-------------------------->
E-------------------------->

verse 1: guitar 1
e-5--5--5--5--0--0--0--0--2--2--2--2--2--2--2--2-->
B-7--7--7--7--3--3--3--3--3--3--3--3--3--3--3--3-->
G--7--7--7--7--2--2--2--2--4--4--4--4--0--0--0--0->
D------------------------------------------------->
A------------------------------------------------->
E------------------------------------------------->
is this what they call freedom?  is this what you call pain?  is this what
they call discontented fame?

verse 1: guitar 1
e-5--5--5--5--0--0--0--0--2--2--2--2--2--2--2--2-->
B-7--7--7--7--3--3--3--3--3--3--3--3--3--3--3--3-->
G--7--7--7--7--2--2--2--2--4--4--4--4--0--0--0--0->
D------------------------------------------------->
A------------------------------------------------->
E------------------------------------------------->
it'll be a day like this one when the world caves in when the world caves
in when the world caves in

fill: guitar 1
e-5--5--5--5--2--2--0--0--->
B-7--7--7--7--3--3--3--3--->
G--7--7--7--7--0--0--3--3-->
D-------------------------->
A-------------------------->
E-------------------------->

verse 2: guitar 1
e-2-2-2-2-2-2-0-0-2-2-2-2-2-2-0-0-2-2-2-2-3-3-0-0-2-2-2-2-2-2-5-5->
B-0-0-0-0-3-3-3-3-0-0-0-0-3-3-3-3-5-5-5-5-5-5-5-5-0-0-0-0-3-3-3-3->
G-4-4-4-4-0-0-0-0-4-4-4-4-0-0-0-0-4-4-4-4-4-4-4-4-4-4-4-4-0-0-0-0->
D---------------------------------2-2-2-2-5-5-5-5----------------->
A----------------------------------------------------------------->
E----------------------------------------------------------------->
I'm singing this one like a broken piece of glass from broken arms and
broken noses in the back is this the new year or just another desperation?

verse 2: guitar 1
e-2--2--2--2--0--0--0--0--2--2--2--2--3--3--3--3-->
B-3--3--3--3--3--3--3--3--3--3--3--3--3--3--3--3-->
G-2--2--2--2--2--2--2--2--4--4--4--4--4--4--4--4-->
D--0--0--0--0--2--2--2--2--4--4--4--4--5--5--5--5->
A------------------------------------------------->
E------------------------------------------------->
you're pushing till you're shoving you bend until you break till you stand
on the broken fields where your fathers lay

verse 2: guitar 1
e-2--2--2--2--0--0--0--0--2--2--2--2--3--3--3--3--2--2--2--2--3--3--3--3-->
B-3--3--3--3--3--3--3--3--3--3--3--3--3--3--3--3--3--3--3--3--3--3--3--3-->
G-2--2--2--2--2--2--2--2--4--4--4--4--4--4--4--4--2--2--2--2--4--4--4--4-->
D--0--0--0--0--2--2--2--2--4--4--4--4--5--5--5--5--0--0--0--0--5--5--5--5->
A------------------------------------------------------------------------->
E------------------------------------------------------------------------->
it'll be a day like this one when the world caves in when the world caves
in when the world caves in when the world caves 

verse 2: guitar 1
e-2--2--2--2--3--3--3--3--2--2--2--2--3--3--3--3--0--0--2--2--5--5--5--5-->
B-3--3--3--3--3--3--3--3--3--3--3--3--3--3--3--3--0--0--2--2--5--5--5--5-->
G-2--2--2--2--4--4--4--4--2--2--2--2--4--4--4--4--2--2--4--4--7--7--7--7-->
D--0--0--0--0--5--5--5--5--0--0--0--0--5--5--5--5--2--2--4--4--7--7--7--7->
A------------------------------------------------------------------------->
E------------------------------------------------------------------------->
in when the world caves in when the world caves in

verse 3: guitar 1
/e-2--2--2--2--0--0--0--0--2--2--2--2--3--3--3--3-->\
|B-3--3--3--3--0--0--0--0--3--3--3--3--3--3--3--3-->|
|G-2--2--2--2--2--2--2--2--4--4--4--4--4--4--4--4-->|
|D--0--0--0--0--2--2--2--2--4--4--4--4--5--5--5--5->|
|A------------------------------------------------->|
|E------------------------------------------------->|
|                                                   \
|verse 3: guitar 2 (electric)                        |REAPEAT 4x
|e-2~~---------0~~---------2~~---------3~~------3-->/
|B-3~~---------0~~---------3~~---------3~~------3-->|
|G-2~~---------2~~---------4~~---------4~~------4-->|
|D-0~~---------2~~---------4~~---------7~~------7-->|
|A-------------0~~---------2~~---------5~~------5-->|
\E-------------------------------------3~~------5-->/
There's nothing here worth saving, is no one here at all?  is there any net
left that could break our fall?  it'll be a day like this one when the sky
falls down and the hungry and poor and deserted are found are you
discontented?  have you been pushing hard?  have you been through and down
this broken house of cards?  it'll be a day like this one when the world
caves in when the world caves in when the world caves in

fill: guitar 1
/e-2--2--2--2--3--3--3--3--2--2--2--2--3--3--3--3-->\
|B-3--3--3--3--3--3--3--3--3--3--3--3--3--3--3--3-->|
|G-2--2--2--2--4--4--4--4--2--2--2--2--4--4--4--4-->|
|D--0--0--0--0--5--5--5--5--0--0--0--0--5--5--5--5->|
|A------------------------------------------------->|
|E------------------------------------------------->|
|                                                   |
|fill: guitar 2 (electric)                          |
|e-2~~---------------------2~~--------------------->|
|B-3~~---------------------3~~--------------------->|
|G-2~~---------------------2~~--------------------->|
|D-0~~---------------------0~~--------------------->|
|A------------------------------------------------->|
\E------------------------------------------------->/

verse 4: guitar 1
e-2--2--2--2--2--2--2--2--5--5--5--5--2--2--2--2--3-3-3-3-2--2--2--2-->
B-3--3--3--3--3--3--3--3--7--7--7--7--3--3--3--3--5-5-5-5-3--3--3--3-->
G--4--4--4--4--0--0--0--0--7--7--7--7--4--4--4--4-4-4-4-4--0--0--0--0->
D-------------------------------------------------2-2-2-2------------->
A--------------------------------------------------------------------->
E--------------------------------------------------------------------->
is there nothing left now? nothing left to sing are there any left who
haven't kissed the enemy?  is this the New Year or just another desperation?

fill: guitar 1
e-3--3--3--3--2--2--2--2-->
B-5--5--5--5--3--3--3--3-->
G--4--4--4--4--0--0--0--0->
D------------------------->
A------------------------->
E------------------------->

outro: guitar 1
/e-2--2--2--2--0--0--0--0--2--2--2--2--3--3--3--3-->\
|B-3--3--3--3--0--0--0--0--3--3--3--3--3--3--3--3-->|
|G-2--2--2--2--2--2--2--2--4--4--4--4--4--4--4--4-->|
|D--0--0--0--0--2--2--2--2--4--4--4--4--5--5--5--5->|
|A------------------------------------------------->|
|E------------------------------------------------->|
|                                                   \
|outro: guitar 2                                     |REAPEAT 3x
|e-2~~---------0~~---------2~~---------3~~------3-->/
|B-3~~---------0~~---------3~~---------3~~------3-->|
|G-2~~---------2~~---------4~~---------4~~------4-->|
|D-0~~---------2~~---------4~~---------7~~------7-->|
|A-------------0~~---------2~~---------5~~------5-->|
\E-------------------------------------3~~------5-->/
just as I could find you, do the wicked never lose?  is there any honest
song to sing besides these blues?  and nothing is okay till the world caves
in till the world caves in till the world caves in till the world caves in
till the world caves in until the world caves in until the world caves in
until the world caves in until the world caves in until the world caves in
until the world caves in

end on:
e-2~~->
B-3~~->
G-2~~->
D-0~~->
A----->
E----->
2 comments total.
0 reply
switchfreek wrote on May 23 2008, 09:18 pm

good job buddy another way to do it is
-5--5--5--5-------------- --------------
-7--7--7--7--7--7--7--7-- X2 then -5--5--5--5---
--7--7--7--7-7--7--7--7-- -7--7--7--7---
--------------5--5--5--5- --8--8--8--8--
------------------------- --------------
------------------------- --------------
but urs is great i just dont like the slide down part

0 reply
switchfreek wrote on May 23 2008, 09:20 pm

sry after the x2 it shoul be
--------------
-5--5--5--5---
-7--7--7--7---
--8--8--8--8--
--------------
--------------

I want to post or [tab]
guest
You may want to rate the tab now too:
select rating
Please do not post tabs as comments. Select "correction" instead!