Oops, an error
Loading. Please wait.

Bullet Soul Tab

ver1
ver1

Intro

Whole song

More versions @911Tabs.com
11,661 views 15 this week
9 commentsread comments
1 2 3 4 5
accurate
x 6
Autoscroll
+/-
esc
set tempo
stop
Contributor
WARNING: You are trying to view
                                    content from Ultimate-Guitar.com
                                    in an unauthorized application,
                                    which is prohibited.

                                    Please use an official Ultimate
                                    Guitar Tabs application for iPhone,
                                    iPad or Android to access legitimate
                                    chords, guitar, bass, and drum tabs
                                    from Ultimate-Guitar.com database.

                                    Type "ultimate guitar tabs" in Apple
                                    App Store's or Android Market's
                                    search to find the application.
Switchfoot
Bullet Soul
Hello Hurricane -- 2009

Tuning - Drop D (D A d G B E)

Intro: Part 1
E|-------------------------------------|
B|-------------------------------------|
G|-------------------------------------|
d|-------------------------------------|2x 
A|--7-7-7-7-7-7---------------5-5-5-6--|
D|---------------7-6-5-5-5-5-----------|

Intro: Part 2
E|-------------------------------------|
B|-------------------------------------|
G|--9-9-9-9-9-9---------------7-7-7-8--|
d|--9-9-9-9-9-9--7\6\5-5-5-5--7-7-7-8--|1x 
A|--7-7-7-7-7-7--7\6\5-5-5-5--5-5-5-6--|
D|---------------7\6\5-5-5-5-----------|

Intro: Part 3
E|------------------------------|
B|------------------------------|
G|--9-9/12-9-----------7-7-7-7--|
d|--9-9/-x-9--5-5-5-5--7-7-7-7--|1x 
A|--7-7/10-7--5-5-5-5--5-5-5-5--|
D|------------5-5-5-5-----------|

Verse 1 - Same as Intro: Part 2
I wanna take it for all the dreamers
I'm singing this one for the sparks
Here's one for the friction makers
We are the bleeding hearts
Don't care whoever you are

Chorus
Guitar 1 & 2 - Same as Intro: Part 2
We rise and fall together
Our hearts still beat below
You can't stand by forever 
         D                 B5      
You're a kid with a bullet soul
                    Intro Part 3 - 2x
Are you ready to go? 
Are you ready to go? 

Verse 2 
Guitar 1 - Same as Intro: Part 1
I wanna turn up the radiation 
I wanna glow in the dark 
Love is the one truth in relation
Love is the only art
Don't matter where you go

Guitar 2 
e|---------------------------------------|
B|---------------------------------------|
G|---------------------------------------|
D|--6-6-6-6-6-6-7-7-9-9-9-9-7-7-7-7-7-7--| 
A|---------------------------------------|
E|---------------------------------------|

Chorus 

Interlude
Part 1
E|--------------------------|
B|--------------------------|
G|--------------------------|
d|--9-9-9--7h5--0-0--7-7-7--| 3x 
A|--9-9-9--7h5--0-0--7-7-7--|
D|--9-9-9--7h5--0-0--7-7-7--|

Part 2
E|------------------------------------------|
B|--12^--14^--15^--17^--12^--14^--15^--18^--|
G|---x----x----x----x----x----x----x----x---|
d|---9^--11^--12^--14^---9^--11^--12^--15^--| 
A|------------------------------------------|
D|------------------------------------------|
NOTE: I made them octaves to make it more interesting, but you 
might be able to get away with just playing the single notes.

Verse 3 - Same as Intro: Part 1 (expect were noted)
    We are the children of the scarred 
E|------------------------------------------------------------------|
B|------------------------------------------------------------------|
G|------------------------------------------------------------------|
d|-------------------------------------7-6-5------------------------| 
A|--Intro: Part 1----------------------7-6-5--Intro: Part 1(cont.)--|
D|-------------------------------------7-6-5------------------------|

            We need a second start  Yeah  Yeah   Yeah Yeah
E|----------------------------------------------------------|
B|----------------------------------------------------------|
G|----------------------------------------------------------|
d|--7-6-5---------------------------------7-6-5--0-0-0-0-0--| 
A|--7-6-5-----Intro: Part 1 (cont.)-------7-6-5--0-0-0-0-0--|
D|--7-6-5---------------------------------7-6-5--0-0-0-0-0--|

Chorus 
comments
print report bad tab
9 comments total. Showing first comments.
0 reply
Jon777 wrote on June 25 2009, 03:31 pm

Do they play this live? I'm hoping that they'll release some singles from Hello Hurricane.

0 reply
TIMAY21 wrote on June 25 2009, 06:37 pm

yep! there are videos on youtube

0 reply
Jon777 wrote on June 26 2009, 02:43 pm

Ah, well I'd better check it out C:

I want to post or [tab]
guest
You may want to rate the tab now too:
select rating
Please do not post tabs as comments. Select "correction" instead!