Oops, an error
Loading. Please wait.

Hello Hurricane Bass Tab

ver1
ver1

Album

Whole song

Interactive

More versions @911Tabs.com
1,535 views 3 this week
no commentswrite comment
1 2 3 4 5
excellent!
x 3
Autoscroll
+/-
esc
set tempo
stop
Contributor
Difficulty
Hey! There's an official Ultimate Guitar app which is ideal
for learning songs when you're away from computer. Get the app
WARNING: You are trying to view
                                    content from Ultimate-Guitar.com
                                    in an unauthorized application,
                                    which is prohibited.

                                    Please use an official Ultimate
                                    Guitar Tabs application for iPhone,
                                    iPad or Android to access legitimate
                                    chords, guitar, bass, and drum tabs
                                    from Ultimate-Guitar.com database.

                                    Type "ultimate guitar tabs" in Apple
                                    App Store's or Android Market's
                                    search to find the application.
=============================================================================
                              HELLO HURRICANE                 SWITCHFOOT
=============================================================================

Tabbed by:hurricaneherman

Here is the bass tab for Switchfoot's album "Hello Hurricane", deluxe version.
I had to tab 9 of these songs, but I also re-tabbed the other 5.

TRACK LIST:

1:Needle And Haystack Life
2:Mess Of Me
3:Your Love Is A Song
4:The Sound(John M. Perkins' Blues)
5:Enough To Let Me Go
6:Free
7:Hello Hurricane
8:Always
9:Bullet soul
10:Yet
11:Sing It Out
12:Red Eyes
13:Mess Of Me(Acoustic)
14:Always(Alternative Acoustic Version)
=============================================================================
                      1.NEEDLE AND HAYSTACK LIFE              SWITCHFOOT
-----------------------------------------------------------------------------

Tuning:Standard

~INTRO~

NO BASS

~VERSE 1~

G|----------------------------------------------------------------|
D|----------------------------------------------------------------|
A|--------------------------------8-8-8-8-8-8-8-8-8-8-8-8-8-8-8-8-|X[4]
E|5-5-5-5-5-5-5-5/8-8-8-8-8-8-8-8---------------------------------|
              The world begins        with newborn skin we
                     we are right now
              Your a needle girl      in a haystack world
                     we are right now

G|----------------------------------------------------------------|
D|----------------------------------------------------------------|
A|3-3-3-3-3-3-3-3-3-3-3-3-3-3-3-3---------------------------------|
E|--------------------------------3-3-3-3-3-3-3-3-3-3-3-3-3-3-3-3-|
              You breathe it in             the highs and lows

G|----------------------------------------------------------------|
D|----------------------------------------------------------------|
A|----------------------------------------------------------------|
E|1-1-1-1-1-1-1-1-1-1-1-1-1-1-1-1-5-5-5-5-5-5-5-5-3-3-3-3-3-3-3-3-|
                       We call it living

~CHORUS 1~

G|----------------------------------------------------------------|
D|----------------------------------------------------------------|
A|8-8-8-8-8-8-8-8-8-8-8-8-8-8-8-8-3-3-3-3-3-3-3-3-----------------|X[3]
E|------------------------------------------------3-3-3-3-3-3-3-3-|
                          In this needle   and    haystack 
 Life                  I've found miracles        there in your
 Eyes                     It's no accident        where here

G|----------------------------------------------------------------|
D|----------------------------------------------------------------|
A|----------------------------------------------------------------|
E|5---5---5-5-5-5-1---1---1-1-1-1-5---5---5-5-5-5-----------------|
Tonight                                  We are once in a lifetime

~INTERLUDE 1~

G|----------------------------------------------------------------|
D|----------------------------------------------------------------|
A|--------------------------------8-8-8-8-8-8-8-8-8-8-8-8-8-8-8-8-|X[2]
E|5-5-5-5-5-5-5-5/8-8-8-8-8-8-8-8---------------------------------|

~VERSE 2~

Your defiantly going to want to listen for timing. 

G|----------------------------------------------------------------|
D|----------------------------------------------------------------|
A|--------3-------------------------------3-----------------------|X[2]
E|5---3h5-----5---3h5-5\------0---1---1/5-----5---3h5-5\---33--333|
          Don't let go  don't give up hope       all is forgiven
          You breathe it in you breathe it in    we call it living

~CHORUS 2~

G|----------------------------------------------------------------|
D|----------------------------------------------------------------|
A|3-3-3-3-3-3-3-3-----------------8-8-8-8-8-8-8-8-8-8-8-8-8-8-8-8-|X[3]
E|----------------3-3-3-3-3-3-3-3---------------------------------|
                          In this needle   and    haystack 
 Life                  I've found miracles        there in your
 Eyes                     It's no accident        where here

G|----------------------------------------------------------------|
D|----------------------------------------------------------------|
A|----------------------------------------------------------------|
E|5---5---5-5-5-5-1---1---1-1-1-1-5---5---5-5-5-5-----------------|
Tonight                                  We are once in a lifetime

~BRIDGE~

G|----------------------------------------------------------------|
D|0-0-0-0-3-0-0-0-0-0-0-0-3-0-------------------------------------|
A|----------------------------3---0-0-0-0-3-0-0-0-0-0-0-0-3-0-----|
E|------------------------------3-----------------------------3-0-|
                       All is not lost

G|----------------------------------------------------------------|
D|----------------------------------------------------------------|
A|--------3---------------3---------------3---------------3-----3-|
E|1-1-1-1---1-1-1-1-1-1-1---1-1-1-5-5-5-5---5-5-5-3-3-3-3---3-3---|
                       All is not lost

G|----------------------------------------------------------------|
D|0-0-0-0-3-0-0-0-0-0-0-0-3-0-------------------------------------|
A|----------------------------3---0-0-0-0-3-0-0-0-0-0-0-0-3-0-----|
E|------------------------------3-----------------------------3-0-|
                   Become who you are

G|----------------------------------------------------------------|
D|----------------------------------------------------------------|
A|--------3---------------3--------------------------------------3|
E|1-1-1-1---1-1-1-1-1-1-1---1-1-1-5-5-5-5-5-5-5-5-3-------3-------|
                       It happens once    in a    life    time

~INTERLUDE 2~

G|--------------------------------|
D|--------------------------------|
A|---------------/8-8-8-8-8-8-8-8-|
E|1-1-1-1-1-1-1-1-----------------|

~REPEAT CHORUS 2~

~OUTRO~

G|----------------------------------------------------------------|
D|----------------------------------------------------------------|
A|----------------------------------------------------------------|
E|8-8-8-8-8-8-8-8-8-8-8-8-8-8-8-8\1-1-1-1-1-1-1-1-1-1-1-1-1-1-1-1/|

G|-----------------------------------------------------------------|
D|-----------------------------------------------------------------|
A|-----------------------------------------------------------------|
E|8-8-8-8-8-8-8-8-8-8-8-8-8-8-8-8\1-1-1-1-1-1-1-1-1-1-1-1-1-1-1-1/8|

=============================================================================
                              2.MESS OF ME                    SWITCHFOOT
-----------------------------------------------------------------------------

Tuning:Standard

~INTRO~

This is played right at the end of the intro.

G|--------------------------------|
D|--------------------------------|
A|--------------------------------|
E|----------------------------12\0|

~VERSE~

This riff is played along with each of the guitar riffs.

G|----------------------------------------------------------------|
D|----------------------------------------------------5h7---------|
A|------------------------------------------------3-3-------------|X[4]
E|------------------------0-----0-0---0---0---0---------------0---|
  I am my own affliction
  I am my own disease
There ain't no drug that they can sell
no there ain't no drug to make me well 

~PRE-CHORUS~

G|--------------------------------|    |---------------------------------|
D|--------------------------------|    |---------------------------------|
A|--------------------------------|X[3]|---------------------------------|
E|0-----0-0---0---0---0---0-0-5h7-|    |0-----0-0---0---0---5---5-5-3---3|
        There ain't no drug                        The sickness is myself

~CHORUS~

G|----------------------------------------------------------------|
D|----------------------------------------------------------------|_
A|----------------------------------3-----3-3---3---3---3-3-3-3-3-| |
E|0-----0-0---0---0---0---0-0-0-0-0-------------------------------| |
          I've made a mess of me    I wanna get back the rest of me |
                                                                    |X[2]
G|----------------------------------------------------------------| |
D|----------------------------------------------------------------|_|
A|----------------------------------2-----2-2---2---2---2-2-2-2-2-|
E|3-----3-3---3---3---3---3-3-3-3-3-------------------------------|
          I've made a mess of me  I wanna spend the rest of my life alive

G|--------------------------------------|
D|--------------------------------------|
A|3-----3-3---3---3-2-----2-2---2---2/9-|
E|--------------------------------------|
                The rest of my life alive

~INTERLUDE~

Play the intro riff.

~REPEAT VERSE~

We lock our souls in cages we hide inside our shells it's so hard to free the
   ones you love oh when you can't forgive yourself yeah forgive yourself

It plays this riff towards the end of the verse.

G|-----------------------|
D|-----------------------|
A|-------------10h12-----|
E|0-----10-------------0-|

~REPEAT PRE-CHORUS~

~REPEAT CHORUS~

~INTERLUDE 2~

G|----------------------------------------------------------------|
D|----------------------------------------------------------------|
A|----------------------------------------------------------------|
E|0---0-0---0---0-0---0-0---0---0-5---5-5---5---5-7---7-7---7---7-|

~BRIDGE~

G|---------12-14/16---14-14-12-11----12---------------------------|
D|------14------------------------14------------------------------|
A|----------------------------------------------------------------|
E|-/12-----------------------------------------12\0---------------|
   I'm breaking up  the sickness is myself  the sickness is myself

~REPEAT CHORUS~

~OUTRO~

G|--------------------|    |----------------|
D|--------------------|    |----------------|
A|--------------------|X[7]|----------------|
E|0-----0-0---0---0---|    |0---------------|

=============================================================================
                         3.YOUR LOVE IS A SONG                SWITCHFOOT
-----------------------------------------------------------------------------

Tuning:Standard

NOTE:The lyrics don't line up with the notes, so don't use them as guidelines

~INTRO~

It doesn't start right away with the bass. This comes in a little later.

G|----------------------------------------------------------------|
D|----------------------------------------------------------------|
A|----------------5-5-5-5-5-5-5-5-0-0-0-0-0-0-0-0-----------------|
E|2-2-2-2-2-2-2-2---------------------------------0---------------|
Yeah

~VERSE 1~

NO BASS

I hear you breathing in another day begins
The stars are falling out my dreams are fading now fading out

~PRE-CHORUS~

G|------------------------------------------------------------------|
D|------------------------------------------------------------------|
A|4\0-0-0-0-4-4-4-4-2-2-2-2-2-2-2-2-0-0-0-0-4-4-4-4-2-2-2-2-2-2-2-2-|
E|------------------------------------------------------------------|
I've been keeping my eyes wide open I've been keeping my eyes wide open

~CHORUS~

G|----------------------------------------------------------------|
D|4-4-4-4-4-4-4-4-------------------------------------------------|
A|----------------5-5-5-5-5-5-5-5-0-0-0-0-0-0-0-0-----------------|X[2]
E|------------------------------------------------0-0-0-0-0-0-0-0-|
Oh your love is a symphony all around me running through me
Oh your love is a melody underneath me running to me

G|--------------------------------|
D|--------------------------------|
A|2-2-2-2-2-2-2-2-5-------------\-|
E|--------------------------------|
Oh your love is a song

~VERSE 2~

You might want to listen to it to get the timing correct.

G|----------------------------------------------------------------|
D|----------------------------------------7-----------------------|
A|0---------------12----11----9---0-------------6-----0---2h3/7---|
E|----------------------------------------------------------------|
  The dawn is fire bright against the city lights

G|----------------------------------------------------------------|
D|----------------------------------------7-7---------------------|
A|0---------------12----11----9---0-------------6-6---------------|
E|----------------------------------------------------4-4---0-0---|
  The clouds are glowing now the moon is blacking out  blacking out

~REPEAT PRE-CHORUS~

So I've been keeping my mind wide open
I've been keeping my mind wide open yeah

~CHORUS 2~

Repeat first line of chorus 1, and then add this.

Only play notes in parentheses the first time. 

G|----------------------------------------------------------------|
D|----------------------------------------------------------------|
A|0-0-0-0-0-0-0-0-5-5-5-5-5-5-5-5-7-7-7-7-7-7-7-7-2(2-2-2-2-2-2-2)|X[2]
E|----------------------------------------------------------------|
  Oh Your love is a song your love is a song

~PRE-CHORUS 2~

Only play notes in parentheses the first time. 

G|------------------------------------------------------------------|
D|------------------------------------------------------------------|
A|4\0-0-0-0-4-4-4-4-2-2-2-2-2-2-2-2-0-0-0-0-4-4-4-4-2-2-2(2-2-2-2-2)|X[2]
E|------------------------------------------------------------------|
  I've got my eyes wide open I've got my eyes wide open
  I've been keeping my hopes unbroken yeah yeah

~OUTRO-CHORUS~

Repeat first line of chorus 1, and the add this.

G|----------------------------------------------------------------|
D|4-4-4-4-4-4-4-4-----------------4-4-4-4-2-2-2-2-0-0-0-0-0-0-0-0-|
A|----------------5-5-5-5-5-5-5-5---------------------------------|
E|----------------------------------------------------------------|
  Your love is a song yeah

G|-------------------------------|    |---------------------------|
D|4-4-4-4-2-2-2-2-0-0-0-0-0-0-0-0|    |---------------------------|
A|-------------------------------|X[2]|2-2-2-2-2-2-2-2-5----------|
E|-------------------------------|    |---------------------------|
  Yeah                                oh your love is a song
  Your love is my remedy
=============================================================================
                  4.THE SOUND(JOHN M. PERKINS' BLUES)         SWITCHFOOT
-----------------------------------------------------------------------------

Tuning:Drop D tuning(D-A-D-G)

NOTE:The lyrics don't line up with the notes, so don't use them as guidelines

~INTRO~

G|--------------------------------|
D|--------------------------------|
A|--------------------------------|X[4]
D|0---0-0-12-0---0---0---0---0-10-|

~VERSE~

Repeat intro riff twenty times, instead of four.

The static comes in slow you can feel it grow
Our stream of conscience flows under the streets below
Woa woa
The rivers made of sound still running under ground
Runs like a silent flood we run as thick as blood

~PRE-CHORUS~

G|----------------------------------------------------------------|
D|----------------------------------------------------------------|
A|----------------------------------------------------------------|
D|/8-------------\3--------------/8--------------\5---------------|
You can hear it rise up from the ground can't drown it out can you hear it now

~CHORUS~

G|----------------------------------------------------------------|
D|----------------------------------------------------------------|
A|----------------------------------------------------------------|X[2]
D|0-------0-------0-------0------/8-8-8-8-8-8-8-8\5-5-5-5-5-5-5-5-|
This is the sound of a heart beat this is the sound from the discontented
        mouths of a haunted nation we are the voice of breaking
Down can you hear me this is the sound of the desperation bound by our own
             collision we are the voice of breaking down

~INTERLUDE~

Repeat intro riff four times.

~VERSE 2~

Repeat intro riff ten times.

The static comes alive beneath the broken skies
John Perkins said it right love is the final fight

~REPEAT PRE-CHORUS~

~REPEAT CHORUS~

~BRIDGE~

Repeat intro riff eight times. NOTE:It starts quiet, and builds up.

~PRE-CHORUS 2~

G|------------------------------------------------------------------|
D|------------------------------------------------------------------|
A|------------------------------------------------------------------|
D|/8---8---8---8--\3---3---3---3--/8-8-8-8-8-8-8-8\5-5-5-5-5-8-12-8-|
Let it rise above rise above there is no song louder than love

~CHORUS 2~

Repeat chorus, and then add this to the end.

G|--------------------------------|
D|--------------------------------|
A|--------------------------------|
D|0-------0-------0-------0-------|

~OUTRO~

Play intro riff four times. NOTE:It is in double time here.

Hold the last note out.
=============================================================================
                       5.ENOUGH TO LET ME GO                  SWITCHFOOT
-----------------------------------------------------------------------------

Tuning:Standard

~INTRO~

NO BASS FOR INTRO

~VERSE~

G|----------------------------------------------------------------|
D|----------------------------------------------------------------|
A|--------------------------------1-1-1-1-1-1-1-1-1-1-1-1-1-1-1-1/|
E|2-------2-2-2-2-----2---2-2-2-2---------------------------------|
 Oh               I'm a wondering soul                   I'm still


G|----------------------------------------------------------------|
D|----------------------------------------------------------------|
A|6-6-6-6-6-6-6-6\4-4-4-4-4-4-4-4\2-2-2-2-2-2-2-2-2-2-2-2-2-2-2-2-|
E|----------------------------------------------------------------|
    walking the line that leads me home

G|----------------------------------------------------------------|
D|----------------------------------------------------------------|
A|--------------------------------1-1-1-1-1-1-1-1-1-1-1-1-1-1-1-1/|
E|2-2-2-2---2---2---------2-2-2-2---------------------------------|
Alone                    all I know                 I've still got

G|----------------------------------------------------------------|
D|----------------------------------------------------------------|
A|6-6-6-6-6-6-6-6\4-4-4-4-4-4-4-4\2-2-2-2-2-2-2-2-2-2-2-2-2-2-2-2-|
E|----------------------------------------------------------------|
  Mountains  to  climb  on  my   own                         on my

G|----------------------------------------------------------------|
D|----------------------------------------------------------------|
A|----------------------------------------------------------------|
E|2---------------------------------------------------------------|
  Own

~CHORUS~

G|----------------------------------------------------------------|
D|----------------------------------------------------------------|
A|2-2-2-2-2-2-2-2/4-4-4-4-4-4-4-4/6-6-6-6-6-6-6-6\4-4-4-4-4-4-4-4\|
E|----------------------------------------------------------------|
  Do you love me enough to let me go

G|----------------------------------------------------------------|
D|----------------------------------------------------------------|
A|2-2-2-2-2-2-2-2/4-4-4-4-4-4-4-4/6-6-6-6-6-6-6-6/9-9-9-9-9-9-9-9\|
E|----------------------------------------------------------------|
  Do you love me enough to let me go                     to let me

G|----------------------------------------------------------------|
D|----------------------------------------------------------------|
A|2-2-2-2-2-2-2-2/4-4-4-4-4-4-4-4/6-6-6-6-6-6-6-6\4-4-4-4-4-4-4-4\|
E|----------------------------------------------------------------|
  follow         through to let me fall       for you

G|----------------------------------------------------------------|
D|----------------------------------------------------------------|
A|2-2-2-2-2-2-2-2/4-4-4-4-4-4-4-4---------------------------------|
E|-------------------------------(2)------------------------------|
  Do you love me enough to let me go

~VERSE~

G|----------------------------------------------------------------|
D|----------------------------------------------------------------|
A|--------------------------------1-1-1-1-1-1-1-1-1-1-1-1-1-1-1-1-|
E|2-2-2-2-2-2-2-2-2-2-2-2-2-2-2-2---------------------------------|
 Back from the dead of winter back from the dead and all our leaves are

G|----------------------------------------------------------------|
D|----------------------------------------------------------------|
A|6-6-6-6-6-6-6-6\4-4-4-4-4-4-4-4\2-2-2-2-2-2-2-2-2-2-2-2-2-2-2-2-|
E|----------------------------------------------------------------|
  Dry     your so beautiful tonight

G|----------------------------------------------------------------|
D|----------------------------------------------------------------|
A|--------------------------------1-1-1-1-1-1-1-1-1-1-1-1-1-1-1-1-|
E|2-2-2-2-2-2-2-2-2-2-2-2-2-2-2-2---------------------------------|
Back from the dead we went through back from the dead and both our tongues

G|----------------------------------------------------------------|
D|----------------------------------------------------------------|
A|6-6-6-6-6-6-6-6\4-4-4-4-4-4-4-4\2-2-2-2-2-2-2-2-2-2-2-2-2-2-2-2\|
E|----------------------------------------------------------------|
are tied your look beautiful tonight                    but every

G|----------------------------------------------------------------|
D|----------------------------------------------------------------|
A|6-6-6-6-6-6-6-6\4-4-4-4-4-4-4-4\2-2-2-2-2-2-2-2-2-2-2-2---------|
E|----------------------------------------------------------12\---|
  Seed     dies before        it grows

~REPEAT CHORUS~

NOTE: Don't play the last note in parentheses

~BRIDGE~

G|----------------------------------------------------------------|
D|----------------------------------------------------------------|
A|6-6-6-6-6-6-6-6-4-4-4-4-4-4-4-4-----------------2-2-2-2-2-2-2-2-|
E|--------------------------------4-4-4-4-4-4-4-4-----------------|
       Breathe it in                   and let it go

G|----------------------------------------------------------------|
D|----------------------------------------------------------------|
A|6-6-6-6-6-6-6-6-4-4-4-4-4-4-4-4-----------------2-2-2-2-2-2-2-2-|
E|--------------------------------4-4-4-4-4-4-4-4-----------------|
Every breathe you take is not yours to own   it's not  yours    to

G|----------------------------------------------------------------|
D|----------------------------------------------------------------|
A|6-------4----2--------------------------------------------------|
E|----------------------------------------------------------------|
  Hold            Do you love me enough to let me

G|----------------------------------------------------------------|
D|----------------------------------------------------------------|
A|----------------------------------------------------------------|
E|2---------------------------------------------------------------|
  Go

~REPEAT CHORUS~

NOTE: Play note in the parentheses.

=============================================================================
                                6.FREE                        SWITCHFOOT
-----------------------------------------------------------------------------

Tuning:Drop D tuning(D-A-D-G)

NOTE:Lyrics don't line up with the notes, so don't use them as guidelines.

~INTRO~

Don't play notes in parentheses.

G|----------------------------------------------------------------|
D|----------------------------------------------------------------|
A|--------------------------------2-------------------------------|X[2]
D|4---------------0------------/12--------------------------(0/7)-|

~VERSE~

G|----------------------------------------------------------------|
D|----------------------------------------------------------------|
A|--------------------------------2-------------------------------|
D|4---------------0------------/12----------------0----------2/12-|
I've got my back against the wall I can still hear the blue sky's call
These chains that hold me back inside are the prisons of my mind yeah

~CHORUS~

G|----------------------------------------------------------------|
D|----------------------------------------------------------------|
A|------------------------------------------------0----(0)--------|
D|4-----4-4-----4-4----(4)4-----4-0-----0-0----(0)--------2-/-7---|
 Free come set me free down on my knees I still believe you can save me from

G|----------------------------------------------------------------|
D|----------------------------------------------------------------|
A|2-----2-2-----2-2-------2----2/7--------------------------------|
D|--------------------------------0-----0-0-/-7-------------------|
 Me come set mo free come set me free inside this shell there's a prison cell

~INTERLUDE~

Play intro riff, with notes in parentheses

~VERSE 2~

G|----------------------------------------------------------------|
D|----------------------------------------------------------------|
A|------------------------------/52--2-2--2--2-2------------------|
D|4--4-4--4--4-4--0--0-0--0--0-0------------------0--0-0--2--2-2/7|
I try to live the light of day why would I do what I hate but when I try to
             reach above I only hurt the ones I love yeah

~REPEAT CHORUS~

With the notes in parentheses.

~BRIDGE~

Play notes in parentheses the first time only.

G|----------------------------------------------------------------|
D|----------------------------------------------------------------|
A|----------------2-------------------------------0---------------|X[2]
D|2(2-2-2-2)----------------------0-------------------------------|
There's a hole in the neighbor hood where the shadows fall there's a hole in
              my heart but my hope is not in me at all

G|------------------|
D|--2-2-2---2-2-2---|
A|2---------------2-|
D|------------------|
I had a dream that my chains where

G|----------------------------------------------------------------|
D|-----------------------------------------------------twelves----|
A|----------------------------------------------------------------|
D|0-0-0-0-0-0-0-0/6-6-6-6/9-9-9-9\0-0-0-0-0-0-0-0/12121212121212--|
  Broken         Broken           broken          open

~CHORUS 2~

G|----------------------------------------------------------------|
D|----------------------------------------------------------------|
A|------------------------------------------------0-0---0---------|
D|4---4-4-4---4-4-4---4-4-4---4-4-0---0-0-0-----0---------2-/-7-7-|
 Free come set me free down on my knees I still believe you can save me from

G|----------------------------------------------------------------|
D|----------------------------------------------------------------|
A|2---2-2-2---2-2-2-----2-2-2--2/7--------------------------------|
D|--------------------------------0---0-0-0-/-7-------------------|
 Me come set mo free come set me free inside this shell there's a prison cell

~OUTRO~

Play intro riff twice, and then play this.

G|--------------------------------|
D|--------------------------------|
A|----------------4---------------|
D|4-------------------------------|

After the last note, the cello's and violins finish the song.
=============================================================================
                            7.HELLO HURRICANE                 SWITCHFOOT
-----------------------------------------------------------------------------

Tuning:Standard

~INTRO~

G|------------------------------------------------------------------|
D|------------------------------------------------------------------|
A|------------------------------------------------------------------|
E|7\3-3-3-3-3-3-3-3-3-3-3-3-3-3-3-3-3-3-3-3-3-3-3-3-3-3-3-3-3-3-3-3-|

G|----------------------------------------------------------------|
D|----------------------------------------------------------------|
A|----------------------------------------------------------------|
E|101010101010101010101010101010103-3-3-3-3-3-3-3-3-3-3-3-3-3-3-3-|
              (tens)
~VERSE~

G|----------------------------------------------------------------|
D|----------------------------------------------------------------|
A|7-7-7-7-7-7-7-7-------------------------------------------------|
E|----------------8-8-8-8-8-8-8-8\3-3-3-3-3-3-3-3-3-3-3-3-3-3-3-3-|
        I've been watching  the   skies

G|----------------------------------------------------------------|
D|----------------------------------------------------------------|
A|7-7-7-7-7-7-7-7-------------------------------------------------|X[2]
E|----------------8-8-8-8-8-8-8-8\3-3-3-3-3-3-3-3/7-7-7-7-7-7-7-7-|
     They've been turning blood   red
            Not a doubt in my     mind        anymore

G|----------------------------------------------------------------|
D|----------------0-0-0-0-0-0-0-0-2-2-2-2-2-2-2-2-2-2-2-2-2-2-2-2-|
A|----------------------------------------------------------------|
E|8-8-8-8-8-8-8-8-------------------------------------------------|
        There's a storm    up    ahead

~CHORUS~

G|----------------------------------------------------------------|
D|----------------------------------------------------------------|
A|--------------------------------7-7-7-7-7-7-7-7-7-7-7-7-7-7-7-7-|
E|3-3-3-3-3-3-3-3-8-8-8-8-8-8-8-8---------------------------------|
  Hello hurricane     you're not enough

G|----------------------------------------------------------------|
D|----------------------------------------------------------------|
A|--------------------------------5-5-5-5-5-5-5-5-5-5-5-5-5-5-5-5-|
E|3-3-3-3-3-3-3-3-8-8-8-8-8-8-8-8---------------------------------|
 Hello hurricane        you can't silence my love         I've got
                                                          all your
G|----------------------------------------------------------------|
D|----------------------------------------------------------------|
A|--------------------------------5-5-5-5-5-5-5-5-5-5-5-5-5-5-5-5-|X[2]
E|8-8-8-8-8-8-8-8\3-3-3-3-3-3-3-3---------------------------------|
  Doors   and     windows boarded up
  Dead    end     fury's   not    enough

~INTERLUDE~

G|----------------------------------------------------------------|
D|----------------------------------------------------------------|
A|7-7-7-7-7-7-7-7-------------------------------------------------|
E|----------------8-8-8-8-8-8-8-8\3-3-3-3-3-3-3-3-3-3-3-3-3-3-3-3-|

~REPEAT VERSE~

Everything I have I account as lost everything I have is stripped away
Before I started building I counted up these costs
And there's nothing left for you to take away

~REPEAT CHORUS~

~INTERLUDE 2~

G|----------------------------------------------------------------|
D|----------------------------------------------------------------|
A|7-7-7-7-7-7-7-7-------------------------------------------------|X[2]
E|----------------8-8-8-8-8-8-8-8-3-3---3-3-3---3-3-3---3-3-3-3---|

~BRIDGE~

G|----------------------------------------------------------------|
D|----------------2-3-3-3-3-3-3-3-2-2-2-2-2-2-2-2-----------------|
A|----------------------------------------------------------------|
E|3-3-3-3-3-3-3-3---------------------------------3-3-3-3-3-3-3-3-|
    I'm a fighter fighting for control              I'm a fighter

G|----------------------------------------------------------------|
D|2-3-3-3---5---3-2-2-2-2-2-2-2-2---------------------------------|
A|----------------------------------------------------------------|
E|--------------------------------0-0-0-0-0-0-0-0-2-2-2-2-2-2-2-2-|
 Fighting for my soul             everything    inside  of me

G|----------------------------------------------------------------|
D|----------------------------------------------------------------|
A|----------------------------------------------------------------|
E|8-8-8-8-8-8-8-8-8-8-8-8-8-8-8-8-0---3---------------------------|
Surrenders      you can't silence my  love

~REPEAT CHORUS~

~REPEAT INTERLUDE 2~

~OUTRO~

G|----------------------------------|
D|----------------------------------|
A|7-7-7-7-7-7-7-7-------------------|
E|----------------101010101010101\3-|

=============================================================================
                               8.ALWAYS                       SWITCHFOOT
-----------------------------------------------------------------------------

Tuning:Standard

~VERSE 1~

NO BASS

This is the start this is your heart this is the day you where born
This is the sun these are your lungs this is the day you where born

~CHORUS 1~

NO BASS

And I am always always always yours and I am always always always yours

~VERSE 2~

G|----------------------------------------------------------------|
D|----------------------------------------------------------------|
A|3-------------------------------0-------------------------------|
E|----------------1----------------------/3-------1-----------/12-|
These are the scars deep in your heart this is the place you where born

G|----------------------------------------------------------------|
D|----------------------------------------------------------------|
A|0-----------------------3-------0-------------------------------|
E|--------0-------1-----------3-----------3-------1---------------|
This is the hole where most of your soul comes ripping out from the places
You've been torn

~CHORUS 2~

G|----------------------------------------------------------------|
D|----------------------------------------------------------------|
A|0-0-------------3-3-------------0-0-------------3-3-------------|X[2]
E|--------1-1-------------1-1-------------3-3---------------------|
And I am always always always yours

~INTERLUDE~

G|----|----------------------------------------------------------------|
D|----|----------------------------------------------------------------|
A|----|0---------------0------------------0-----0----------------------|
E|-1h3|----1---0-----------1---0---------1-----3--0-------3------3p1-0-|

~BRIDGE~

G|----------------------------------------------------------------|
D|----------------------------------------------------------------|
A|--------3-3-3-----------3-3-----0-0---0---------0-0-0-------3-3-|
E|1-1-1-----------1-1-1-------3-3-----1---3-3-3-----------1-1-----|
Hallelujah I'm caving in hallelujah I'm in love again hallelujah I'm a
Wretched man hallelujah every breathe is a second chance

~REPEAT CHORUS 2 X[2]~

NOTE:Lyrics are different than the other chorus.

~OUTRO~

NO BASS

=============================================================================
                             9.BULLET SOUL                  SWITCHFOOT
-----------------------------------------------------------------------------
 
Tuning:Drop D tuning(D-A-D-G)

~INTRO~

The bass comes in half way through the intro with this riff.

G|---------------------------------------------------------------|
D|---------------------------------------------------------------|
A|7-7-7-7-7------------5-5-5-5-6-7-7-7-7-10-7-----------5-5-5-5-6|
D|----------7-6-5-5-5-5-----------------------7-5-5-5-5----------|

~VERSE~

This is the only note that is played for the verse.

G|--------------------------------|
D|--------------------------------|
A|7-------------------------------|
D|--------------------------------|
  
Ooh I wanna sing one for all the dreamers...
 
~CHORUS~

G|--------------------------------|    |----------------|
D|--------------------------------|    |----------------|
A|7-7-7-7-7-------------5-5-5-5-6-| X3 |9-9-9-9-9-7-7-7-|
D|----------7-6-5-5-5-5-----------|    |----------------|

  We rise and fall together...

G|------------------------------------------------------------------|
D|------------------------------------------------------------------|
A|7-7-7-7/10-7-----------5-5-5-5-6-7-7-7-7/10-7-----------5-5-5-5-7-|
D|-------------7-5-5-5-5------------------------7-5-5-5-5-----------|

  Are you ready to go...

~VERSE~

G|----------------|
D|----------------|
A|7---------------|
D|----------------|

  Ooh I wanna turn up...

G|-----------------|  |------------------|  |--------|
D|-----------------|  |----9-------------|  |--------|
A|7----7910---10-\-|X3|7-----7910---10-\-|X3|7-------|
D|-----------------|  |------------------|  |--------|

  ...the radiation...one true innovation...is the only art...

  ~REPEAT CHORUS~

  The second chorus is a little longer, so this is a continues of the chorus

G|---------------------------------|
D|---------------------------------|
A|7-7-7-7/10-7-----------5-5-5-5-7-|
D|-------------7-5-5-5-5-----------|

  ...Are you ready to go...

  ~BRIDGE~

G|--------------------------------|  |-------------------|
D|9-9-9-9-9-------------7-7-7-7-8-|  |9---11---12---14---|
A|----------9-8-7-7-7-7-----------|X3|-------------------|
D|--------------------------------|  |-------------------|

G|------------------------------------------------|
D|------------------------------------------------|
A|------------------------------------------------|
D|-----7-6-5-----------7-6-5-----------7-6-5---0--|

...scar              ooh...from the start...yeah yeah...

 ~REPEAT SECOND CHORUS~

=============================================================================
                                 10.YET                     SWITCHFOOT
-----------------------------------------------------------------------------

Tuning:Standard

NOTE: The lyrics don't line up right, so don't use them as guidelines.

~INTRO~

G|----------------------------------------------------------------|
D|----------------------------------------------------------------|
A|----------7-------------------------------7---------------------|
E|1-/-8-----------8-\-1-----------1-/-8-----------8-\-1-----------|

~VERSE 1~

G|----------------------------------------------------------------|
D|----------------------------------------------------------------|
A|----------------3---3---------------------------0---0-----------|X[2]
E|1---1---------------------------3---3---------------------------|
  All attempts have failed        all my heads are tails
  Shes got teary eyes             I've got reasons why           I'm

~PRE-CHORUS~

G|----------------------------------------------------------------|
D|----------------------------------------------------------------|
A|----------------------------------------------------------------|
E|1---1-----------3---3-----------1---1-----------3---3-----------|
Losing ground and gaining speed I've lost myself or most of me I'm

G|----------------------------------------------------------------|
D|----------------------------------------------------------------|
A|5--------------/10----------------------------------------------|
E|--------------------------------1---------------1-/-8-----------|
  headed for the final precipice                      But you haven't lost me

~CHORUS~

G|----------------------------------------------------------------|
D|----------------------------------------------------------------|
A|----------------------------------------------------------------|
E|3---3---------/-8---8---------\-3---3---------/-8---8-----------|
  Yet     no you haven't lost me yet                   I'll sing until my

G|----------------------------------------------------------------|
D|----------------------------------------------------------------|
A|0-------------------------------------------------------------3-|
E|----------------3---------------1---------------------------3---|
  Heart           Caves           In     no you haven't lost me yet

~INTERLUDE~

G|--------------------------------|
D|--------------------------------|
A|(3)let ring---------------------|
E|--------------------------------|

~VERSE 2~

G|----------------------------------------------------------------|
D|----------------------------------------------------------------|
A|3---3-------0-/-7---7-----------------------0---3---3-----------|
E|---------------------------13-\-3---3-3---------------------8-\-|
  These days pass me by           dream with open eyes

G|----------------------------------------------------------------|
D|----------------------------------------------------------------|
A|--------------------------------------------0---3---2---0-------|
E|1---1-1-----1-/-8---8-8-8-----\-3---3-3-------------------------|
  Nightmares haunt my days        Visions blur my nights        I'm

~PRE-CHORUS 2~

G|----------------------------------------------------------------|
D|----------------------------------------------------------------|
A|------------------------------------------------------------0-/-|
E|1---1-1---------3---3-3-----8-\-1---1-1---------3---3-3---------|
  So confused what's true or false what's fact or fiction after all I

G|----------------------------------------------------------------|
D|----------------5---5-5-----------------------------------------|
A|5---5-5---------------------------------------------------------|
E|----------------------------1-----------------------------------|
 Feel like I'm    apparitions pet

G|------------------------|
D|------------------------|
A|------------------------|
E|1---1-3---3-5---5-7-8---|
         But you haven't lost me yet

~REPEAT CHORUS~

~BRIDGE~

G|----------------------------------------------------------------|
D|----------------------------------------------------------------|
A|----------------------------------------------------------------|
E|8---8-----------3---------------1-------------------------------|

G|--------------------------------|
D|--------------------------------|
A|--------------------------------|
E|1-----1-1-----1-1---3---5---7---|

G|----------------------------------------------------------------|
D|----------------------------------------------------------------|
A|----------------------------------------------------------------|
E|8---8-----------3---------------1-------------------------------|

G|--------------------------------|
D|--------------------------------|
A|--------------------------------|
E|1-----1-1-----1-1---3---5---8---|

G|----------------------------------------------------------------|
D|----------------------------------------------------------------|
A|----------------7---------------------------------------7-------|
E|8-------------------8-\-1-----------1-/-8-------------------8-\1|
If it doesn't break if it doesn't break if it doesn't break if it

G|----------------------------------------------------------------|
D|----------------------------------------------------------------|
A|3-3-3-3-3-3-3/8-----------------3-3-3-3-3-3-3/8-----------------|
E|----------------1-1-1-1-1-1-1-1-----------------1-1-1-1-1-1-1-1-|
Doesn't break your heart it isn't love if it doesn't break your heart it's
                             not enough

G|----------------------------------------------------------------|
D|----------------------------------------------------------------|
A|0-0-0-0-------------------------3-3-3-3-3-3-3-3-----------------|
E|--------3-3-3-3-1-1-1-1-1-1-1-1-----------------1-1-1-1-1-1-1-1-|
It's when your breaking down with your insides coming out that's when you
    find out what your heart is made of and you haven't lost me yet

~CHORUS 2~

G|----------------------------------------------------------------|
D|----------------------------------------------------------------|
A|0-0-0-0-------------------------3-3-3-3-3-3-3-3-----------------|
E|--------3-3-3-3-1-1-1-1-1-1-1-1-----------------1-1-1-1-1-1-1-1-|
  yet      no you haven't lost me yet                   I'll run until my

G|--------------------------------|
D|--------------------------------|
A|0-0-0-0-------------------------|
E|--------3-3-3-3-1-1-1-1-1-1-1-1-|
 
  Heart   caves   in       no you haven't lost me yet

~OUTRO~

G|----------------------------------------------------------------|
D|----------------------------------------------------------------|
A|----------7-------------------------------7---------------------|
E|1-/-8-----------8-\-1-----------1-/-8-----------8-----8---------|

=============================================================================
                             11.SING IT OUT                 SWITCHFOOT
-----------------------------------------------------------------------------

Tuning:Standard

~INTRO~

You hold this note through the whole intro. He might strum it a couple of times
to keep it up

G|--------------------------------|
D|--------------------------------|
A|2-------------------------------|
E|--------------------------------|

~VERSE~

NOTE: The lyrics don't always line up, so don't use them as guidelines.

Only play the note in parentheses, the first time.

G|----------------------------------------------------------------|
D|----------------------------------------------------------------|
A|(2)---------------------------------------------2------(1)------|X[2]
E|--------------------------------3-------0-----------------------|
        I'm on the run            I'm on the ropes this time
        Where is my song          I've lost the song of my soul tonight

~CHORUS~

G|----------------------------------------------------------------|
D|----------------------------------------------------------------|
A|5---------------0-------------------------------5-------4-------|X[2]
E|--------------------------------3-------0-----------------------|
  Sing it out sing it out take what is left of me make it a melody
  Sing it out sing out loud I can't find the words to sing you'd be my remedy

G|----------------------------------------------------------------|
D|0-------2-------4-------7-----------------------2---------------|
A|--------------------------------5-------------------------------|
E|----------------------------------------------------------------|
My song        my song      I'll sing with what's left of me

~VERSE 2~

The bass just lets this note ring out until it dies down, and then plays
nothing else.

G|--------------------------------|
D|--------------------------------|
A|2-------------------------------|
E|--------------------------------|

~REPEAT CHORUS~

~BRIDGE~

G|----------------------------------------------------------------|
D|----------------------------------------------------------------|
A|----------------5-------0-----------------------5-------0-------|
E|3-------------------------------0-----2-3-----------------------|
I'm holding on I'm holding on to you my world is wrong my world is a lie
                            that's come true

G|----------------------------------------------------------------|
D|------------------------2---------------4-----------------------|
A|----------------5---------------2----------/9--\12--------------|
E|0-----2-3-------------------------------------------------------|
I fall in love with the ones that run me through when all along all I need
                                is you

~CHORUS 2~

G|----------------------------------------------------------------|
D|----------------------------------------------------------------|
A|5-5-5-5-5-5-5/9-0-0-0-0-0-0-0-------------------5-----5-4-------|X[2]
E|------------------------------2-3-3-3-3-0-0-0-0-----------------|
                  SAME LYRICS AS FIRST CHORUS

G|----------------------------------------------------------------|
D|0-0-0-0-2-2-2-2-4-4-4-4-7-7-7-7-----------------2-2-2-2-2-2-2-2-|
A|--------------------------------5-5-5-5-5-5-5-5-----------------|
E|----------------------------------------------------------------|
                  SAME LYRICS AS FIRST CHORUS

~OUTRO~

You end on that B, but this outro has a lot going on, and the bass plays a
part in it. Every once and a while the bass will play the outro riff. It
sounds like a heartbeat.

G|--------------------------------|
D|--------------------------------|
A|2-------------------------------|
E|--------------------------------|

Outro riff
G|--------------------------------|
D|--------------------------------|
A|2-2-------------2-2-------------|
E|--------------------------------|

=============================================================================
                              12.RED EYES                   SWITCHFOOT
-----------------------------------------------------------------------------

Tuning:Standard

NOTE: All the lyrics don't line up, so don't use them as guidelines.

~INTRO~ 

NO BASS

~VERSE 1~ 

NO BASS

~PRE-CHORUS~

G|----------------------------------------------------------------|
D|----------------------------------------------------------------|
A|----------------------------------------------------------------|
E|3-/-10--------------------------12\-3---------------------------|
  Hol-----ding on                 hol-----ding on             with

~CHORUS~

G|----------------------------------------------------------------|
D|--------5-5-5--/9---9---7-7-7-----------5-5-5--/9---9---7-7-7---|
A|5---5---------------------------5---5---------------------------|
E|----------------------------------------------------------------|
     Red eyes what are you looking for with red eyes red eyes

~VERSE 2~

G|----------------------------------------------------------------|
D|----------------------------------------------------------------|
A|----------------------------------------------------------------|X[3]
E|3-/-10--------10----9-----9-----3-/-10--------10----9---9-------|
All of my days are spent within this skin within this cage that I'm in
           Nowhere feels safe to me nowhere feels home

G|----------------------------------------------------------------|
D|9---------------7---------------5-------------------------------|
A|----------------------------------------------------------------|
E|----------------------------------------------------------------|
          Even in crowds     I'm alone

~PRE-CHORUS 2~

G|----------------------------------------------------------------|
D|----------------------------------------------------------------|
A|----------------------------------------------------------------|
E|0-------------------------------3---------------5---5---5---5---|
  Holding on                      holding on                with

~REPEAT CHORUS~ X[2]

~BRIDGE~

G|----------------------------------------------------------------|
D|9-------9-------4-------4-------5-------5-----------------------|
A|----------------------------------------------------------------|
E|------------------------------------------------0-------0-------|
    Every now and then  I see you dreaming

G|----------------------------------------------------------------|
D|9-------9-------4-------4-------5-------5-------5-------5-------|
A|----------------------------------------------------------------|
E|----------------------------------------------------------------|
    Every now and then  I see you cry

G|----------------------------------------------------------------|
D|----------------------------------------------------------------|
A|5-------5-------4-------4---------------------------------------|
E|--------------------------------3-------3-------0-------0-------|
    Every now and then  I see you reaching

G|--------------------------------|
D|4-------4-------4-------4-------|
A|--------------------------------|
E|-------------------------------3|
  Reaching        for the other  side

G|--------------------------------|    |--------------------------------|
D|5---5---5---5---7---7---7---7---|    |5(let ring)---------------------|
A|--------------------------------|X[2]|--------------------------------|
E|--------------------------------|    |--------------------------------|
  What    are you waiting     for       What    are you waiting     for

G|/12-12--12-\3---3--/7--\0-------|
D|----------------------------0---|
A|--------------------------------|
E|--------------------------------|
  What    are you waiting     for

~REPEAT CHORUS~ X[2]

~OUTRO~

This is the outro for the song, but then it goes in to an outro that's kinda
for the whole album, but the bass does not play in the second one.

G|--------------------------------|    |--------------------------------|
D|--------------------------------|    |--------------------------------|
A|--------------------------------|X[3]|--------------------------------|
E|3-/-10--------10----9-----9-----|    |10(let ring)--------------------|
                                        NOTE: You hold this last note through
                                        around half of the second outro.

=============================================================================
                        13.MESS OF ME(ACOUSTIC)             SWITCHFOOT
-----------------------------------------------------------------------------

Tuning:Standard

~INTRO~

The bass starts at the end of the second measure.

G|----------------------------------------------------------------|
D|----------------------------------------------------------------|
A|----------------------------------------------------------------|
E|--------------------------------12--------------------------12\0|

~VERSE~

G|----------------------------------------------------------------|
D|----------------------------------------------------------------|
A|----------------------------------------------------------------|X[3]
E|(0)----------------------------0----0-0---0---0---0---0/3-3-3\0-|
   I am my own affliction
   I am my own disease
   There ain't no drug that they could sell  

G|----------------------------------------------------------------|
D|----------------------------------------------------------------|
A|----------------------------------------------------------------|
E|---------------------------12\-0----0-0---0---0---0---0/3-3-3\0-|
 Nah there ain't no drug to make me well       there ain't no drug

~PRE-CHORUS~

G|----------------------------------------------------------------|
D|----------------------------------------------------------------|
A|----------------------------------------------------------------|
E|0----0-0---0---0---0---0-0-5h7--0----0-0---0---0---0---0-0-5h7--|
             There ain't no drug              There ain't no drug

G|----------------------------------------------------------------|
D|----------------------------------------------------------------|
A|----------------------------------------------------------------|
E|0----0-0---0---0---0---0-0-5h7--0----0-0---0---0---5---5-5-3--3-|
             It's not enough                  the sickness is myself

~CHORUS~

G|----------------------------------------------------------------|
D|----------------------------------------------------------------|
A|--------------------------------3----3-3---3---3---3---3-3-3-3-3|
E|0----0-0---0---0---0---0-0-0-0-0--------------------------------|
         I've made a mess of me I want to get back the rest of me

G|----------------------------------------------------------------|
D|----------------------------------------------------------------|
A|--------------------------------2----2-2---2---2---2---2-2-2-2-2|
E|3----3-3---3---3---3---3-3-3-3-3--------------------------------|
         I've made a mess of me I want to spend the rest of my life

G|----------------------------------------------------------------|
D|----------------------------------------------------------------|
A|--------------------------------3----3-3---3---3---3---3-3-3-3-3|
E|0----0-0---0---0---0---0-0-0-0-0--------------------------------|
Alive    I've made a mess of me I want to reverse this tragedy 

G|----------------------------------------------------------------|
D|----------------------------------------------------------------|
A|--------------------------------2----2-2---2---2---2---2-2-2-2-2|
E|3----3-3---3---3---3---3-3-3-3-3--------------------------------|
         I've made a mess of me I want to spend the rest of my life

G|----------------------------------------------------------------|
D|----------------------------------------------------------------|
A|3----3-3---3---3------------------------------------------------|
E|----------------7----7-7---7---7/12-----------------------------|
Alive         the rest of my life alive

~INTERLUDE~

Play the intro riff.

~VERSE 2~

G|----------------------------------------these are 10's and 12's-|
D|----------------------------------------------------------------|
A|------------------------------------------------------10121212--|
E|0---------------------------------------------------10--------10|
        We lock our souls in cages

G|----------------------------------------------------------------|
D|----------------------------------------------------------------|
A|---------------------------12--10-------------------------------|
E|-----------------------------------12---------------------------|
        We hide inside our shells

G|---------------------------------------------still 10's and 12's|
D|----------------------------------------------------------------|
A|---------------------------------7-7-7--------------12--1212----|
E|-----------------------0---3---5-------0--------1012--------12--|
        It's so hard to free the ones you love

G|----------------------------------------------------------------|
D|----------------------------------------------------------------|
A|---------------------------0---10--1212--------------10--121212-|
E|---------------------------0------------0--------0-10-----------|
        Oh when you can't forgive yourself yeah forgive yourself

~REPEAT PRE-CHORUS~

~REPEAT CHORUS~

~INTERLUDE~

G|----------------------------------------------------------------|
D|----------------------------------------------------------------|
A|----------------------------------------------------------------|
E|0----0-0---0---0---0----0-0---0---0---5----5-5---5---7---7-7---7|

~BRIDGE~

This is where it gets fun.

G|----------------------------------------------------------------|
D|------------------------------------------------------------14--|
A|------------------------------------------------10--------------|
E|0--------------/10--------------9-------------------------------|

G|----------------------------------------------------------------|
D|------------------------------------------------------------14--|
A|-----------------(½)-----------------------------(½)------------|
E|0----0-0---9-10-10b-------------0----0-0---9-10-10b-------------|

G|----------------------------------------------------------------|
D|----------------------------------------------------------------|
A|----------------------------------------------------------------|
E|12--------------10--------------9---------------8-------7------/|
There ain't no drug there ain't no drug there ain't no drug no drug to make me

G|----------------------------------------------------------------|
D|----------------------------------------------------------------|
A|------------------------------------------------14------14-14-14|
E|12--------------12--------------12------------------------------|
  Well there ain't no drug it's not enough I'm breaking up the sickness is

G|--------------------------------|
D|10------10-10-10----------------|
A|----------------14------14-14-14|
E|--------------------------------|
Myself        the sickness is myself

~REPEAT CHORUS~

~OUTRO~

G|----------------------------------------------------------------------|
D|----------------------------------------------------------------------|
A|----------------------------------------------------------------------|X[2]
E|/12---12-12-12-12-12----/12---12-12-12-12-12----/12---12-12-12-12-12--|

G|----------------------------------------------------------------|
D|----------------------------------------------------------------|
A|----------------------------------------------------------------|
E|/12--------------------------------------------------------12\0-|

=============================================================================
                14.ALWAYS(ALTERNATIVE ACOUSTIC VERSION)     SWITCHFOOT
-----------------------------------------------------------------------------

Tuning:Standard

~VERSE 1~

NO BASS

This is the start this is your heart this is the day you where born
This is the sun these are your lungs this is the day you where born

~CHORUS 1~

NO BASS

And I am always always always yours and I am always always always yours

~VERSE 2~

G|----------------------------------------------------------------|
D|----------------------------------------------------------------|
A|3------------\0-----------------0-------------------------------|
E|----------------1------------/3--------/3-------1-----------/12-|
These are the scars deep in your heart this is the place you where born

G|----------------------------------------------------------------|
D|----------------------------------------------------------------|
A|0-----------------------3-------0-------------------------------|
E|--------0-------1-----------3-----------3-------1---------------|
This is the hole where most of your soul comes ripping out from the places
                           You've been torn

~CHORUS 2~

G|----------------------------------------------------------------|
D|----------------------------------------------------------------|
A|0-0-0-----------3-3-3-----------0-0-0-----------3-3-3---3-3-3---|X[2]
E|--------1-1-1-----------1-1-1-----------3-3-3-------------------|
And I am always always always yours

~INTERLUDE~

G|----|----------------------------------------------------------------|
D|----|------------------------------------------2---------------------|
A|----|0---------------0-----------------------3-----------------------|
E|-1h3|----1---0-----------1---0-------0-3---3-----------3-------3p1-0-|

~BRIDGE~

Listen for timing.

G|---------------------------------------------------------------------|
D|----------------------------6------------------------------7---------|
A|------5h7-----3p2---2---0-------------5h7---5---3---0---/7---7-5-3-0-|
E|5---5---------------------------5------------------------------------|
You will always have this spark in me the part that shines in your eyes

G|---------------------------------------------------------------------|
D|---------------------------------------------------------------------|
A|5---7---7p5h7p5h7---5---3---3/5-7---5--3-----------------------------|
E|-------------------------------------------3-1-1-1-1-1-1-1-1-3-3-3-3-|
You where always my poetry you where always mine

G|--------------------------------|
D|----3/5-5-5-5-7-7-5-----------\-|
A|3/5-----------------------------|
E|--------------------------------|

~REPEAT CHORUS~

You repeat the chorus three times instead of two, and then add this.


G|----------------------------------------------------------------|
D|----------------------------------------------------------------|
A|0-0-0-----------3-3-3-----------0-0-0-----------3---------------|
E|--------1-1-1-----------1-1-1-----------3-3-3-------------------|

~OUTRO~

NO BASS

=============================================================================
/ = slide up
\ = slide down
h = hammer on
p = pull off

I hope you enjoy my interpretations of the basses part for these songs, and
I hope that it is easy to follow.

Peace, Love, I'm out.
=============================================================================
comments
We did not receive enough feedback on this tab! Please rate:
print report bad tab
1 2 3 4 5
I want to post or [tab]
guest
You may want to rate the tab now too:
select rating
Please do not post tabs as comments. Select "correction" instead!