Oops, an error
Loading. Please wait.

Hello Hurricane Chords

ver1
ver1

Album

Whole song

Interactive

More versions @911Tabs.com
16,200 views 27 this week
no commentswrite comment
1 2 3 4 5
excellent!
x 7
Autoscroll
+/-
esc
set tempo
stop
Contributor
Hey! There's an official Ultimate Guitar app which is ideal
for learning songs when you're away from computer. Get the app
WARNING: You are trying to view
                                    content from Ultimate-Guitar.com
                                    in an unauthorized application,
                                    which is prohibited.

                                    Please use an official Ultimate
                                    Guitar Tabs application for iPhone,
                                    iPad or Android to access legitimate
                                    chords, guitar, bass, and drum tabs
                                    from Ultimate-Guitar.com database.

                                    Type "ultimate guitar tabs" in Apple
                                    App Store's or Android Market's
                                    search to find the application.
HEELO HURRICANE
SWITCHFOOT


"Needle and Haystack Life" – 3:49
"Mess of Me" – 3:27
"Your Love Is a Song" – 4:22
"The Sound (John M. Perkins' Blues)" – 3:47
"Enough to Let Me Go" – 3:52
"Free" – 4:03
"Hello Hurricane" – 4:04
"Always" – 4:20
"Bullet Soul" – 3:24
"Yet" – 3:53
"Sing It Out" – 5:17
"Red Eyes" – 4:50



Title: Needle and Haystack Life
Preformed by: Switchfoot
Written by: Jon Foreman


Intro: C

(Verse 1)
Am
  The world begins
F
  With newborn skin
Am              F
  We are right now
Am
  You're a needle girl
F
  In a haystack world
Am               F
   We are right now

(Prechorus 1)
Am
  You breathe it in
G                 F
  The highs and lows
             Am   G
We call it living

(Chorus)
F         C          G        F
 In this needle and haystack life
             C         G             F
 I've found miracle's there in your eyes
         Am       G             F
It's no accident we're here tonight
        Am         G
We are once in a lifetime

(Verse 2)
No, don't let go
Don't give up hope
All is forgiven

(Prechorus 2)
You breathe it in
The highs and lows
We call it living

(Repeat Chorus)

(Bridge)
F            Am
 All is not lost
F                Am  G  F
  All is not lost
(F)              Am
  Become who you are
F            Am         G
  It happens once in a lifetime

(Repeat Chorus)


Switchfoot
Mess of Me
Hello Hurricane -- 2009

Tuning - Standard (E A D G B E)
*Chords are listed at end of song

Main Riff (MR)
e|-----------------------|
B|-----------------------|
G|-----------------------|
D|-----------------------|
A|--7/12-12-12h10p12h10--|
E|--0--------------------|

Riff 2 (R2)
e|-------|
B|--12^--|
G|---x---|
D|---9^--|
A|-------|
E|-------|

Intro - MR 4x

Verse 1
                      MR 
I am my own affliction 
                   MR   
I am my own disease 
                                       MR
There ain't no drug that they could sell 
                                       MR 
Ah, there ain't no drugs to make me well 

Pre-Chorus 1
Em
There ain't no drugs 
It's not enough 
There ain't no drugs 
The sickness is myself 

Chorus 
Guitar 1
Em                 C5
I made a mess of me 
                               G5 
I wanna get back the rest of me 

I've made a mess of me 
  B5                                Em 
I wanna spend the rest of my life alive 
                      C5 
I've made a mess of me  
                            G5
I wanna reverse this tragedy 

I've made a mess of me 
  B5                                C5  
I wanna spend the rest of my live alive 
    B5                   MR 2x
The rest of my life alive 

Guitar 2
e|------------------------------------------------------|
B|--8----5----12----10----8----5----12----10----8----7--|
G|------------------------------------------------------|
D|------------------------------------------------------|
A|------------------------------------------------------|
E|------------------------------------------------------|
NOTE: play each note rapidly -- one note for each chord in chorus.

Verse 2
                          MR
We lock our souls in cages 
                          MR
We hide inside our shells 
             R2                    MR  
It's hard to free the ones you love 
                                  MR
Oh when you can't forgive yourself 
                     Em
Yeah forgive yourself

Pre-Chorus 2
Em
There ain't no drugs 
There ain't no drugs 
There ain't no drugs 
The sickness is myself 

Chorus

Interlude 
Guitar 1
Em

Guitar 2
e|-------------------------------------|
B|--15^-----14^-----12^/14^/15^/17/19--|
G|------12^-----11^--------------------|
D|-------------------------------------|
A|-------------------------------------|
E|-------------------------------------|

Bridge 
Guitar 1
Em
There ain't no drug 
There ain't no drug 
There ain't no drug 
No drugs to make me well 
There ain't no drug 
It's not enough 
We're breaking up 
The sickness is myself 

Guitar 2
e|---------------------------------------|
B|---------------------------------------|
G|--12-12h14^14-[3x]--14-14-12-12--------|[2x]
D|--------------------------------13/17--|
A|---------------------------------------|
E|---------------------------------------|

Post-Bridge
The sickness is myself 

Chorus

Outro - Em 

*Chords Used
    Em  C5  G5  B5      
e|-----------------|
B|-----------------|
G|--0--------------|
D|--2---10--5---9--|
A|--2---10--5---9--|
E|--0----8--3---7--|

OR

    E5  C5  G5  B5      
e|-----------------|
B|-----------------|
G|--9---5---10--4--|
D|--9---5---10--4--|
A|--7---3----8--2--|
E|-----------------|




Title: Your Love is A Song
Artist: Switchfoot
Album: Hello Hurricane (2009)

A simple chord sheet. These are the basic chords I use for supplementary instruments and piano.

Intro: F#m D A E (x2)


(Verse 1)
F#m7
     I hear you breathing in 
                         D  F#m7 E
     another day begins 
F#m7
     the stars are falling out 
                               D    F#m7      E
     my dreams are fading now,             fading out 

(Prechorus 1)
                         D      F#m7    E
I've been keeping my    eyes    wide   open
                         D      F#m7    E
I've been keeping my    eyes    wide   open 

(Chorus 1)
F#m                  D
   your love is a symphony
      A                E
all around me, running through me 
F#m                 D
   your love is a melody
     A                E 
underneath me, running to me 
Bm                 D
  your love is a song 


(Verse 2)
F#m7
    the dawn is fire bright 
                            D F#m7 E
    against the city lights 
F#m7
    the clouds are glowing now 
                            D F#m7 E
    the moon is blacking out 

(Prechorus 2)

                         D      F#m7     E
I've been keeping my    mind    wide    open 
                         D      F#m7     E
I've been keeping my    mind    wide    open 

your love is a song 

(Chorus 2)
F#m                  D
   your love is a symphony
      A                E
all around me, running to me 
F#m                 D
   your love is a melody
     A                E 
underneath me, running to me 
F#m                 D
   your love is a song
                   A     E
   your love is a song 
F#m                 D
   your love is a song
                 A     E
   your love is strong 

(Prechorus 3)
            D      F#m7     E
with my    eyes    wide    open
                D     F#m7    E 
I've got my    eyes   wide   open 
                          D     F#m7    E
I've been keeping my    hopes    un   broken 
      D    F#m7 E
Yeah!          Yeah!

(Chorus 3)
F#m                  D
   your love is a symphony
      A                E
all around me, running through me 
F#m                 D
   your love is a melody
     A                E 
underneath me, running to me 
Bm                 D
  your love is a song 
F#m    E     D
  Yeeeeeeaaaah!
F#m    E     D
  YEEEEEAAAAH!
F#m    E          D
  Your love is my remedy! 
Bm                 D
Oh, your love is a song


                             THE SOUND (JOHN M. PERKINS BLUES) - Switchfoot
-------------------------------------------------------------------------------
Tabbed by: Dan!
Tuning: Drop D (DADGBE)

Here's all the main rhythm guitar parts, I'll get that weird solo and maybe the little 
later

Main Riff for intro, verses, bridge, outro
e|--------------------------------------------------------------------------|
B|--------------------------------------------------------------------------|
G|--------------------------------------------------------------------------|
D|--------------------------------------------------------------------------|
A|--------------------------------------------------------------------------|
D|-0-00-12-0-0--0--0-0-10---------------------------------------------------|
     Palm mute the open ones

During the parts of the verse where they sing "oh, oh, oh," don't palm mute

Pre-Chorus ("Can you hear it rise up from the ground?") chords
e|--------------------------------------------------------------------------|
B|--------------------------------------------------------------------------|
G|-10----5-----10----7------------------------------------------------------|
D|-10----5-----10----7------------------------------------------------------|
A|-8-----3-----8-----5------------------------------------------------------|
D|-8-----3-----8-----5------------------------------------------------------|

Chorus Part I ("This is the sound!")
e|--------------------------------------------------------------------------|
B|--------------------------------------------------------------------------|
G|--------------------------------------------------------------------------|
D|-0---0---0---0------------------------------------------------------------|
A|-0---0---0---0------------------------------------------------------------|
D|-0---0---0---0------------------------------------------------------------|


II "From the discontented mouths"
e|--------------------------------------------------------------------------|
B|--------------------------------------------------------------------------|
G|-------------------10------7----------------------------------------------|
D|-------------------10------7----------------------------------------------|
A|-------------------8-------5----------------------------------------------|
D|-------------------8-------5----------------------------------------------|

Repeat parts I + II again

Repeat the verse again, and note that the guitar drops out at a couple parts

Repeat pre-chorus

At part II, another guitar part comes in. I believe Drew is using a Digitech Whammy here 
to one octave up and playing this
e|--------------------------------------------------------------------------|
B|--------------------------------------------------------------------------|
G|-/55555555555555552222222222222222----------------------------------------|
D|--------------------------------------------------------------------------|
A|--------------------------------------------------------------------------|
D|--------------------------------------------------------------------------|
 (I think the slide-up is simulated by the Whammy btw)

If you don't own a Whammy (and I suggest buying one because they're loads of fun), you 
play this. It won't sound quite the same, though.
e|-/88888888888888885555555555555555----------------------------------------|
B|--------------------------------------------------------------------------|
G|--------------------------------------------------------------------------|
D|--------------------------------------------------------------------------|
A|--------------------------------------------------------------------------|
D|--------------------------------------------------------------------------|

Play the main riff for the solo, with some variations on what's palm-muted

Pre-chorus again

Parts I+II, then I again

The last time part II is played, Drew changes up the Whammy thing a little and plays
e|--------------------------------------------------------------------------|
B|--------------------------------------------------------------------------|
G|-/5555555555555555b7777777777777777---------------------------------------|
D|--------------------------------------------------------------------------|
A|--------------------------------------------------------------------------|
D|--------------------------------------------------------------------------|
    (if you stink at bending, just sliding up to the 7 is fine)

And for you Whammy-not-havers
e|-/8888888888888888b10101010101010101010101010101010-----------------------|
B|--------------------------------------------------------------------------|
G|--------------------------------------------------------------------------|
D|--------------------------------------------------------------------------|
A|--------------------------------------------------------------------------|
D|--------------------------------------------------------------------------|
    (these are 10's, NOT 1's and 0's!)

Play through the riff a few more times without the palm mute, and end on that last note 
the 10th fret of the low E (or D, whatever you want to call it)

I might the rest later, but you have all the parts that are actually worth knowing for now!

l PM Palm-Mute
l .    staccato
| /   slide up


Boom... The Static comes in slow
You can feel it grow
Our stream of conscience flows
Under the streets below

Ooooh

Ooooh

The rivers made of sound
Still running underground
Runs like a silent flood
We run as thick as blood





Can you hear it rise
Up from the ground
Can’t drown it out
Can you hear it now

This is the sound of a heartbeat
This is the sound of the discontented mouths
Of a haunted nation
We are the voice of breaking down

Can you hear me?
This is the sound of the desperation bound
By our own collision
We are the voice of breaking down

The static comes alive
Beneath the broken skies
John Perkins said it right
Love is the final fight
Oooh
Oooh
Let it rise above
Rise above
There is no song
Louder than love

This is the sound of a heartbeat
this is the sound of the discontented mouths
of a haunted nation
we are the voice of breaking down

Can you hear me?
This is the sound of the desperation bound
by our own collision
we are the voice of breaking down

Down

Down

Down

Let it rise above
Up from the ground
Can't drown it out
Can you hear it now

This is the sound of a heartbeat
This is the sound of the discontented mouths
Of a haunted nation, we are the voice of breaking down

Can you hear me
This is the sound of the desperation bound
by our condition, we are the voice of breaking down

This is the sound
This is the sound




ENOUGH TO LET ME GO

CAPO 1
Intro:

E|---------------------------------------------|
B|---------------------------------------------|
G|---------------------------------------------|
D|-------10--7-5------------10--7-5-------7--5-|
A|---5-8---------8------5-8---------8----------|
E|-----------------6------------------6--------| x2



Verse 1
F                    F/A
Oh,   I'm a wandering soul
           Dm        C                 A#
I'm still walking the line that leads me home
F           F/A
alone, all I know
            Dm         C          A#
I still got mountain to climb on my own
      (Back to intro, check the tabs)
on my own 

Chorus 
A#              C               Dm   C
Do you love me enough to let me go?
A#              C               Dm   F
Do you love me enough to let me go?
          A#      C                 Dm      F/A
to let me follow through, to let me fall for you
A#              C            (Back to intro, check the tabs)
Do you love me enough to let me go? 


Verse 2

F 
Back from the dead of winter 
F/A                                     Dm
back from the dead and all our leaves are dry
          C         A#
you’re so beautiful, tonight 

F
back from the dead we went through 
A#                                           Dm      
back from the dead and both our tongues are tied
           C         A# 
you look beautiful tonight 

          Dm        C         A#
but every seed dies before it grows 

Chorus 

A#              C               Dm   C
Do you love me enough to let me go?
A#              C               Dm   F
Do you love me enough to let me go?
          A#      C                 Dm      F/A
to let me follow through, to let me fall for you
A#              C            
Do you love me enough to let me go? 



Bridge:
Dm        C
breathe it in
Gm        C
and let it go 
Gm              C                  Gm
every breath you take is not yours to own 
     A#            Dm   C    A#
it's not yours to hold 
A#              C            (Back to intro, check the tabs) 
Do you love me enough to let me go? 



Chorus 

A#              C               Dm   C
Do you love me enough to let me go?
A#              C               Dm   F
Do you love me enough to let me go?
          A#      C                 Dm      F/A
to let me follow through, to let me fall for you
A#              C            (Back to intro, check the tabs)
Do you love me enough to let me go? 


Artist : Switchfoot
Album : Hello Hurricane
Song : Free
Drop D

E|------------------|    E|------------------|
B|------------------|    B|------------------|
G|--2---2-------4^--|    G|------------------|
d|---h4--h4-2h4-----| OR d|--7---7-------9^--|[6x]
A|------------------|    A|---h9--h9-7h9-----|
D|------------------|    D|------------------|

Verse 1 :

F#m
I've got my back against the wall
D5                                
But I still hear the blue sky call
Bm
The chains that hold me back inside
D5                     E
Are the prisons of my mind


Chorus :

F#m
Free, come set me free
            D5
Down on my knees
           A             E           Bm
I still believe you can save me from me
                               D5
Come set me free, come set me free

Inside this shell, there's a prison cell


Instrumental : F#m, D5, Bm


Verse 2 :

F#m
I try to live the light of day
D5
Why would I do what I hate
Bm
But when I try to reach above
D5                       E
I only hurt the ones I love


Chorus :

F#m
Free, come set me free
            D5
Down on my knees
           A             E           Bm
I still believe you can save me from me
                               D5
Come set me free, come set me free

Inside this shell, there's a prison cell


Bridge :

E                      Bm
There's a hole in the neighborhood
D5                 A
Where the shadows fall
E                     Bm            D5     
There's a hole in my heart, but my hope
                 A
Is not in me at all
E                      Bm          D5
I had a dream that my chains were broken

Broken, broken, broken open


Chorus :

F#m
Free, come set me free
            D5
Down on my knees
           A             E           Bm
I still believe you can save me from me
                               D5
Come set me free, come set me free
                                        F#m
Inside this shell, there's a prison cell


Ending :

D5
Inside this shell, there's a prison cell
Bm
Inside this shell, there's a prison cell


Switchfoot
Hello Hurricane 
Hello Hurricane -- 2009

These are the chords from Switchfoot's new song "Hello Hurricane" from their
upcoming album/release Hello Hurricane -- due out in September '09.

Guitar 1: Standard (E A D G B E) - Mandolin to Guitar
Guitar 2: Standard (E A D G B E) - Guitar (Electric) 
Guitar 3: Stamdard (E A D G B E) - Keyboard to Guitar
*Chords are listed at end of song

Intro 
Guitar 1 (0:11-0:36)
e|-----|      e|-----|
B|--3--|      B|--8--|
G|--0--|  OR  G|--7--|
D|--0--|      D|--5--|
A|--x--|      A|-----|
E|--3--|      E|-----|
              NOTE: This chord sounds more like a mandolin in my opinion.   
(0:37-1:00)
e|-------------------------------------|
B|--3-3-3-3--3-3-3-3--3-3-3-3-3-3-3-3--|
G|--0-0-0-0--0-0-0-0--0-0-0-0-0-0-0-0--|
D|--2-2-2-2--2-2-2-2--0-0-0-0-0-0-0-0--|[4x]
A|--2-2-2-2--3-3-3-3--x-x-x-x-x-x-x-x--|
E|--0-0-0-0-----------3-3-3-3-3-3-3-3--|
  
Guitar 2 (0:37-1:00)
e|----------------------------|
B|--12----12-----12----12-----|
G|-----12----12-----12----12--|
D|----------------------------|
A|----------------------------|
E|----------------------------|

Guitar 3 (0:49-1:00)
e|--15\14\12\10--10\8\7--|
B|-----------------------|
G|-----------------------|
D|-----------------------|
A|-----------------------|
E|-----------------------|

Verse 1
Em        Cadd9        Gsus2
I've been watching the skies
Em           Cadd9      Gsus2
They've been turning blood red
Em    Cadd9       Gsus2        Cadd9 
Not a doubt in my mind  anymore
          D/F#     Em
There's a storm up ahead

Chorus
Gsus2        Cadd9
Hello hurricane
          Em
You're not enough
Gsus2        Cadd9
Hello hurricane
          D 
You can't silence my love
         Cadd9     Gsus2           D
I've got doors and windows boarded up
         Cadd9    Gsus2       D
All your dead end fury is not enough
                      Em7 Cadd9 Gsus2 [2x]
You can't silence my love          My love

Verse 2 - Same as V1
Every thing I have I count as loss 
Everything I have is stripped away 
Before I started building 
I counted up these costs 
There's nothing left for you to take away 

Chorus

Bridge 
G5            Bb5          C5 
I'm a fighter fighting for control 
G5            Bb5             C5
I'm a fighter fighting for my soul 
Em         Dsus2        Cadd9   
Everything inside of me surrenders 
                      Gsus2 (Intro: Guitar 1)
You can't silence my love 

Chorus

*Chords Used
    Gsus2  Cadd9  Em7  Em  D/F#  D  G  G5  Bb5  C5  Dsus2       
e|----(3)----------(0)------------2--------------------0--|
B|----3------3-----3--------3----3--3-----------------3--|
G|----0------0-----0---0----2----2--0-----------------2--|
D|----0------2-----2---2----0----0--0--5----8---10----0--|
A|----x------3-----2---2----x-------2--5----8---10-------|
E|----3------------0---0----2-------3--3----6----8-------|



Switchfoot
Always
Hello Hurricane -- 2009

Tuning - Standard (E A D G B E)
*Chords are listed at end of song

Verse 1
C
This is the start 
F
This is your heart 
Am          G            F      
This is the day you were born 
C
This is the sun 
F
These are your lungs 
Am          G            F
This is the day you were born 

Chorus
         Am  F
And I am al--ways
C   F
Al--ways 
Am  G    C
Al--ways yours 


Verse 2
C
These are the scars 
F
Deep in your heart 
Am          G              F   
This is the place you were born 
Am          Em 
This is the hole 
      F            C  
Where most of your soul 
      G/B     Am
Comes ripping out 
         G                  F  
From the places you've been torn 


Slide Guitar (1:11-1:23)
e|--------------------------|
B|--------------------------|
G|--5/12--14\9--5/12--14\5--|
D|--------------------------|
A|--------------------------|
E|--------------------------|

Chorus 

Interlude 2
Am F C [2x]
Em Am 
C  Em

Slide Guitar 
e|-----------------------------------------------|
B|--1/8--10\5--1/8--10\5--1/8--13\10--1/8--10\5--|
G|-----------------------------------------------|
D|-----------------------------------------------|
A|-----------------------------------------------|
E|-----------------------------------------------|

Bridge
      F
Hallelujah! 
          C
I'm caving in 
      F
Hallelujah! 
            C     G/B
I'm in love again 
      Am
Hallelujah! 
F              C  G/B
I'm a wretched man 
      Am
Hallelujah! 
      F                  C 
Every breath is a second chance 

Chorus - 4x

Ending Slide Guitar
e|-----------------------------------------------|
B|--10\5--1/8--10\5--1/8--5/6\5\1--1/8--5/6\5\1--|
G|-----------------------------------------------|
D|-----------------------------------------------|
A|-----------------------------------------------|
E|-----------------------------------------------|

*Chords Used
    C  F  Am  G OR Gsus4  Em G/B    
e|------------3------3----0---3--|
B|--1--1--1---3------1----0---1--|
G|--0--2--2---0------0----0---0--|
D|--2--3--2---0------0----2---0--|
A|--3--3--0---2------2----2---2--|
E|------------3------3----0------|



Switchfoot
Bullet Soul
Hello Hurricane -- 2009

Tuning - Drop D (D A D G B E)

Intro: Part 1
E|-------------------------------------|
B|-------------------------------------|
G|-------------------------------------|
d|-------------------------------------|2x 
A|--7-7-7-7-7-7---------------5-5-5-6--|
D|---------------7-6-5-5-5-5-----------|

Intro: Part 2
E|-------------------------------------|
B|-------------------------------------|
G|--9-9-9-9-9-9---------------7-7-7-8--|
d|--9-9-9-9-9-9--7\6\5-5-5-5--7-7-7-8--|1x 
A|--7-7-7-7-7-7--7\6\5-5-5-5--5-5-5-6--|
D|---------------7\6\5-5-5-5-----------|

Intro: Part 3
E|------------------------------|
B|------------------------------|
G|--9-9/12-9-----------7-7-7-7--|
d|--9-9/-x-9--5-5-5-5--7-7-7-7--|1x 
A|--7-7/10-7--5-5-5-5--5-5-5-5--|
D|------------5-5-5-5-----------|

Verse 1 - Same as Intro: Part 2
I wanna take it for all the dreamers
I'm singing this one for the sparks
Here's one for the friction makers
We are the bleeding hearts
Don't care whoever you are

Chorus
Guitar 1 & 2 - Same as Intro: Part 2
We rise and fall together
Our hearts still beat below
You can't stand by forever 
         D                 B5      
You're a kid with a bullet soul
                    Intro Part 3 - 2x
Are you ready to go? 
Are you ready to go? 

Verse 2 
Guitar 1 - Same as Intro: Part 1
I wanna turn up the radiation 
I wanna glow in the dark 
Love is the one truth in relation
Love is the only art
Don't matter where you go

Guitar 2 
e|---------------------------------------|
B|---------------------------------------|
G|---------------------------------------|
D|--6-6-6-6-6-6-7-7-9-9-9-9-7-7-7-7-7-7--| 
A|---------------------------------------|
E|---------------------------------------|

Chorus 

Interlude
Part 1
E|--------------------------|
B|--------------------------|
G|--------------------------|
d|--9-9-9--7h5--0-0--7-7-7--| 3x 
A|--9-9-9--7h5--0-0--7-7-7--|
D|--9-9-9--7h5--0-0--7-7-7--|

Part 2
E|------------------------------------------|
B|--12^--14^--15^--17^--12^--14^--15^--18^--|
G|---x----x----x----x----x----x----x----x---|
d|---9^--11^--12^--14^---9^--11^--12^--15^--| 
A|------------------------------------------|
D|------------------------------------------|
NOTE: I made them octaves to make it more interesting, but you 
might be able to get away with just playing the single notes.

Verse 3 - Same as Intro: Part 1 (expect were noted)
    We are the children of the scarred 
E|------------------------------------------------------------------|
B|------------------------------------------------------------------|
G|------------------------------------------------------------------|
d|-------------------------------------7-6-5------------------------| 
A|--Intro: Part 1----------------------7-6-5--Intro: Part 1(cont.)--|
D|-------------------------------------7-6-5------------------------|

            We need a second start  Yeah  Yeah   Yeah Yeah
E|----------------------------------------------------------|
B|----------------------------------------------------------|
G|----------------------------------------------------------|
d|--7-6-5---------------------------------7-6-5--0-0-0-0-0--| 
A|--7-6-5-----Intro: Part 1 (cont.)-------7-6-5--0-0-0-0-0--|
D|--7-6-5---------------------------------7-6-5--0-0-0-0-0--|

Chorus 


Switchfoot 
Yet
Hello Hurricane -- 2009

Tuning - Standard (E A D G B E)
*Chords are listed at end of song

Intro
C Csus4 C F [4x]

Verse 1
F                 C  
All attempts have failed
G                Am
All my heads are tails
F               C
She's got teary eyes
G                Am  
I've got reasons why

Pre-Chorus 1
    F*                 G*
I'm loosing ground and gaining speed
     F*             G*      
I've lost myself or most of me
    D5             G          F 
I'm headed for the final precipice

Chorus 1
                        C  Csus4  C  F 
But you haven't lost me yet
                        C  Csus4  C  F 
No, you haven't lost me yet
                   Am    G     F       
I'll sing until my heart caves in
                        
No, you haven't lost me yet

Interlude 1 - Gtr 1 & 2
      C       Csus4 C 
e|------------------|
B|------------------|
G|-------9----10-9--|
D|--7/10---10-------|2x
A|------------------|
E|------------------|

Verse 2 - Same as V1
These days pass me by
Dream with open eyes
Nightmares haunt my days
Visions blur my nights

Pre-Chorus 2 - Same as PC1
I'm so confused
What's true or false?
What's fact or fiction after all?
I feel like I'm apparition's pet

Chorus 2
But you haven't lost me yet
No, you haven't lost me yet
I'll run until my heart breaks in
No, you haven't lost me yet

Interlude 2
Guitar 1
C    Bb5  F - 2x
Ooo, ooo, ooo

Guitar 2
e|----8/10/12-8----8-6/12-8--|
B|--8------------8-----------|
G|---------------------------|
D|---------------------------|2x
A|---------------------------|
E|---------------------------|

Bridge 
C                   F  
If it doesn't break
                    C
If it doesn't break
                    F 
If it doesn't break 
            C                                       F
If, if, if, if it doesn't break your heart it isn't love?
          C                                 F
No, if it doesn't break your heart it's not enough
     Am                   G              F
It's when you're breaking down with your insides coming out
       C                                         F 
That's when you find out what your heart is made of

Chorus 3
                        Am  G  F
And you haven't lost me yet
                        C  Csus4  C  F 
No, you haven't lost me yet
                   Am    G     F       
I'll sing until my heart caves in
                        
No, you haven't lost me yet

Outro - Gtr 1 & 2
    C       Csus4 C        C 
e|----------------|    e|------|
B|----------------|    B|------|
G|-----9----10-9--|    G|---9--|
D|--10---10-------|3x  D|--10--| 
A|----------------|    A|------|
E|----------------|    E|------|

*Chords Used
    C  Csus4  F  G  Am  F*  G*  D5  Bb5    
e|---------------3----------------------|
B|--1----1----1--0--1---1---3---2-------|
G|--0----0----2--0--2---2---4---3----3--|
D|--2----3----3--0--2---3---5---0----3--|
A|--3----3----3--x--0----------------1--|
E|-----------(1)-3----------------------|


Sing it Out
Hello Hurricane - 2009
Standard

Intro:
e|---2
b|---3
G|4--4
D|-4-4
A|---2
E|---x


VERSE 1:
Bm
  I'm on the run 
G             Em        Bm Bm/Bb
  I'm on the ropes this time 
Bm
  where is my song? 
G               Em        Bm                 
 I've lost the song of my soul tonight 

CHORUS 1:
D
 sing it out 
A
 sing it out 
              G         Em        
take what is left of me 
                D    A 
and make it a melody 

D
 sing it out 
A
 sing out-loud 
                 G             Em
I can't find the words to sing 
            D      A
you'd be my remedy 

POSTCHORUS 1:
    G
My song
    Bm 
My song 
     G                A           Bm
I'll sing with what's left of me 


Bm
 where is the sun? 
G             Em         Bm  Bm/Bb
 feel like a ghost this time 
Bm
  where have you gone? 
G              Em          Bm
 I need your breath in my lungs tonight 

CHORUS 2 
D
 sing it out 
A
 sing it out 
              G         Em        
take what is left of me 
                D    A 
and make it a melody 

D
 sing it out 
A
 sing out-loud 
                 G             Em
I can't find the words to sing 
            D      A
you'd be my remedy 

POSTCHORUS 2:
    G
My song
    Bm 
My song 
     G                A           Bm
I'll sing with what's left of me 

BRIDGE:
            G
I'm holding on 
            D      A 
I'm holding on to you 
             G - G/F# - G
My world is wrong 
               D               A
My world is a lie that's come true
               GG/F# - G 
and I fall in love 
          D                A
with the ones that run me through
     G               Em      Bm  
when all along all I need is you

CHORUS 3 
 

D
 sing it out 
A
 sing it out 
              G         G/F# Em         
take what is left of me 
                D    A 
and make it a melody 

D
 sing it out 
A
 sing out-loud 
                 G            G/F#  Em
I can't find the words to sing 
            D      A
come be my remedy 

POSTCHORUS 3:
    G
My song
    Bm 
My song 
   G
My song
     G                A           Bm
I'll sing with what's left of me 

Red Eyes

The guitar bit for the intro and much of the verses is just a D5 alternating with 
the same chord except you slide your finger from the D on the A string to the C# on the A string. 

Intro: 
D5 D5/C# 
x4

Verse 1:
D5           D5/C#
what are you waiting for, 
D5         D5/C#
the day is gone?
D5         D5/C#           D5    D5/C# 
I said I'm waiting for dawn 

D5            D5/C#
what are you aiming for 
D5        D5/C#
out here alone? 
Bm         A           G
I said I'm aiming for home 
Em           G
holding on, holding on 


Chorus:
     D     G
with red eyes
Bm            A 
What are you looking for? 
     D    G
with red eyes
Bm    A 
 red eyes 

Verse 2
D5        D5/C#
all of my days are spent 
D5           D5/C#
within this skin 
D5            D5/C#       D5    D5/C#
within this cage that I'm in 

D5             D5/C#
nowhere feels safe to me 
D5            D5/C#
nowhere feels home 
Bm        A          G
even in crowds I'm alone 
 Em             G
holding on, holding on 

Chorus:
     D     G
with red eyes
Bm            A 
What are you looking for? 
     D    G
with red eyes
Bm    A 
 red eyes 
     D     G
with red eyes
Bm            A 
What are you looking for? 
     D    G
with red eyes
Bm    A 
 red eyes 


Bm            F#m             G        Em
every now and then I see you dreaming 
Bm            F#m             G     
every now and then I see you cry
D5            D5/C#            G       Em 
every now and then I see you reaching, 
 F#                     (G)
reaching for the other side
G              A 
what are you waiting for? 
  
G              A 
what are you waiting for? 
  
G              A 
what are you waiting for? 
  
G              A 
what are you waiting for!? 
  

Chorus:
     D     G
with red eyes
Bm            A 
What are you looking for? 
     D    G
with red eyes
Bm    A 
 red eyes 
     D     G
with red eyes
Bm            A 
What are you looking for? 
     D    G
with red eyes
Bm    A 
 red eyes 

Outro:
D5 D5/C#
comments
print report bad tab
I want to post or [tab]
guest
You may want to rate the tab now too:
select rating
Please do not post tabs as comments. Select "correction" instead!