Oops, an error
Loading. Please wait.

Learning To Breathe Tab

ver1
ver1

Album

Whole song

Interactive

More versions @911Tabs.com
22,573 views 3 this week
no commentswrite comment
1 2 3 4 5
accurate
x 4
add to favorites launch autoscroll
font size
0
reset
Autoscroll
+/-
esc
set tempo
stop
Contributor
Difficulty
novice
WARNING: You are trying to view
                                    content from Ultimate-Guitar.com
                                    in an unauthorized application,
                                    which is prohibited.

                                    Please use an official Ultimate
                                    Guitar Tabs application for iPhone,
                                    iPad or Android to access legitimate
                                    chords, guitar, bass, and drum tabs
                                    from Ultimate-Guitar.com database.

                                    Type "ultimate guitar tabs" in Apple
                                    App Store's or Android Market's
                                    search to find the application.
============================================================================
Switchfoot - Learning to Breathe
============================================================================
1. I Dare You To Move
2. Learning To Move
3. You Already Take Me There
4. Love Is The Movement
5. Poparazzi
6. Innocence Again
7. Playing For Keeps
8. Loser
9. Economy of Mercy
10. Erosion
11. Living is Simple
============================================================================
Put together by Asa Gaston
Year: 2000
============================================================================
1. I Dare You To Move
============================================================================

Capo on 2

Chords (relative to capo)
D5 = XX0235 (pinky on 5)
D  = XX0232
Dsus2    = XX0230
Dsus2/G  = 3X0230
A  = X02220 or 577655
Em = 022000
G  = 320003 or 355433
Bm = X24432

[]Brackets indicate a quick transition chord, which can maybe be omitted if you're not
very good.  Good luck!

Intro:  D5 D Dsus2 Dsus2/G  (x2)

               D5 D Dsus2 Dsus2/G
Welcome to the planet
             D5 D Dsus2 Dsus2/G
Welcome to existence
           Em
Everyone's here
           A
Everyone's here
            D5       D       Dsus2/G
Everybody's watching you now
          D5        D       Dsus2/G
Everybody waits for you now
             Em
What happens next?
             A
What happens next?


Chorus:
              D
I dare you to move
              A
I dare you to move
              G                        G
I dare you to lift yourself up off the floor
          [A] D
I dare you to move
              A
I dare you to move
                 G
Like today never happened
            A
Today never happened before

D5 D Dsus2/G
D5 D Dsus2/G

               Bm     [A] G
Welcome to the fallout
             Bm      [A] G
Welcome to resistence
               Em
The tension is here
           [D] A 
The tension is here
                Bm                 [A] G
Between who you are and you could be
               Em                      [D]  A
Between how it is and how it should be... yeah

              D   
I dare you to move
              A
I dare you to move
              G                        G
I dare you to lift yourself up off the floor
          [A] D
I dare you to move
              A
I dare you to move
                 G
Like today never happened
            A
Today never happened

        D                       Dsus2/G
Maybe redemption has stories to tell
         D                           Dsus2/G
Maybe forgiveness is right where you fell
              Bm                     G
Where can you run to escape from yourself?
                Em
Where you gonna go?
                A
Where you gonna go?
             D
Salvation is here

D Dsus2/G
D Dsus2/G
              D   
I dare you to move
              A
I dare you to move
              G                                       G
I dare you to lift yourself, lift yourself up off the floor
           A  D
I dare you to move
              A
I dare you to move
                 G
Like today never happened
            Bm
Today never happened
            G
Today never happened
            A          D
Today never happened before

============================================================================
2. Learning To Breathe
============================================================================

Chords needed:

(Intro)  G2    3x023m    > In order to get the intro right, you’ve 
         G     3x043m      gotta place your fingers like this:
         C6    x3m23m        1st finger on the G string
         Cmaj7 x3m43m        2nd finger on the E string
                             3rd finger on the B string  
(Song)   Am7   x02013        4th finger hangs and does the variations
         C2    x30033
         G     3m0033
         D     xx0232
         Dsus  xx0233
         Em2\B x2m032
         Em7   022033
         C2*   x32033
         A7    x02023   

============================================================================

(INTRO)
   Riff 1a (Gtr 1)          x3      Fill 1
e||---------------------------||  |---------------------------------|
B||---3-3-3-3-3-3-3-3-3---3---||  |-3-3-3-3-3-3-3-3-3-3-3-3-3-3-3-3-|
G||o--2-4-2-4-4-2-4-2-4br-2--o||  |-2-4-2-2-0-0-0-0-4-4-4-4-0-0-0-0-|
D||o--0-0-0-0-0-0-0-0-0---0--o||  |-0-0-0-0-0-0-0-0-0-0-0-0-0-0-0-0-|
A||---------------------------||  |---------------------------------|
E||---------------------------||  |---------------------------------|
|
| Riff 1b (Gtr 2)
e||---------------------------||
B||---3-3-3-3-3-3-3-3-3---3---||
G||o--2-4-2-4-4-2-4-2-4---2--o||
D||o--0-0-0-0-0-0-0-0-0---0--o||
A||---------------------------||
E||---------------------------||

Repeat Riff 1 x3
then:
Fill 2
e|---------------------------------|---------------------------------|
B|-3-3-3-3-3-3-3-3-3-3-3-3-3-3-3-3-|-3-3-3-3-3-3-3-3-3-3-3-3-3-3-3-3-|
G|-2-2-2-2-2-2-2-2-0-0-0-0-0-0-0-0-|-0-0-0-0-0-0-0-0-0-0-0-0-0-0-0-0-|
D|-0-0-0-0-0-0-0-0-0-0-0-0-0-0-0-0-|-4-4-4-4-4-4-4-4-4-4-4-4-4-4-4-4-|
A|---------------------------------|---------------------------------|
E|---------------------------------|---------------------------------|



Intro:
G2 G G2 G…
C6 Cmaj7 C6 Cmaj7…  3x
Dsus

----------------------------------------------------------------------------

Verse 1:
Am7  C2   G D G D
Am7  C2   G D G D
C2   Em2\B   Dsus


Chorus:
C2   Em7   C2   Em7
C2   Em7  Dsus  C2*


Verse 2:
C2        G D G D
Am7  C2   G D G D


Back to Chorus


Bridge:  
Em7   C2  G D G D 
Em7   C2  G D G D


Quiet part:  
C2   Em2\B   
C2   Em2\B
C2   Em2\B
Dsus


Chorus:
C2   Em7   C2   Em7
C2   Em7  Dsus  C2*
Dsus  C2*  A7   C2


Back to regular chorus 1x

============================================================================
3. You Already Take Me There
============================================================================

Chords:
    G   D#  F   C   D   C?  E7
E---x---x---x---x---x---x---x---|
B---x---x---x---x---x---3---x---|
G---x---8---x---5---7---5---7---|
D---5---8---3---5---7---5---9---|
A---5---6---3---3---5---3---7---|
E---3---x---1---x---x---x---x---|

Intro, W/Heavy Distortion:
G   D#  F
G   D   C
D#  D

Verse, Clean:
C?  D   E7   (x4)

Chorus, W/Heavy Distortion:
G   D#  F
G   D#  C   G   D#  C
D#  D

(2nd Verse)-same as 1st verse
(Chorus)

Last chorus :
G   D#  F
G   D#  C   G   D#  C
D#  D   D#  D   D#  D   G

============================================================================
4. Love is the Movement
============================================================================

Verse:
Dm Bb F C

Pre-chorus:
G 

Chorus:
Dm Bb Gm C A(major)

After Chorus:
Bb F
Bb C D (major)
D
Intro again
Chorus

============================================================================
5. Poparazzi
============================================================================

INTRO
  Gtr I (w/distortion)
|----------------------|-------------------------|
|------4----4-4-4-4----|--------------4----4-4---|
|------6b8==6-6-6-6r---|--------------6b8==6-6r--|
|----------------------|---5---5-5-3-------------|
|----------------------|-3---3-------------------|
|----------------------|-------------------------|
|
| Gtr II (clean)
|----------------------|-------------------------|
|----------------------|-------------------------|
|----------------------|-------------------------|
|----------------------|-2-----5-5-3-------------|
|--------------------1-|-3-x-x--------0----0-1---|
|----------------------|-------------------------|

                *1/4 bend
|---------------------------------|
|---------------------------------|
|---------------------------------|
|--------------3b3.5====3-3-3-3r--|
|-3-3-5-1-5-1---------------------|
|---------------------------------|
|
|---------------------------------|
|---------------------------------|
|---------------------------------|
|---------------------------------|
|-3-3-5-1-5-1---------------------|
|---------------------------------|

|-------------------------|-----------------|
|--------------4----4-4---|-----------------|
|--------------6b8==6-6r--|-----------------|
|---5---5-5-3-------------|-----------------|
|-3---3-------------------|-3-3-5-1-5-------|
|-------------------------|-----------1-----|
|
|-------------------------|-----------------|
|-------------------------|-----------------|
|-------------------------|-----------------|
|-------5-5-3-------------|-----------------|
|-3-x-x--------0----0-1---|-3-3-5-1-5-------|
|-------------------------|-----------1-----|


 VERSE 1
  Gtrs I, III (w/distortion)
  C7                *1/4 bend        C7
|----------------------------------|-----------------------------|
|----------------------------------|----------------4-----4-4-4--|
|---3---3-3---3--------------------|---3---3-3---3--6b8===6-6-6r-|
|---2---2-2---2--x-3b3.5====3-3-3r-|---2---2-2---2---------------|
|-3---3-----3----x-----------------|-3---3-----3-----------------|
|----------------------------------|-----------------------------|

  C7                *1/4 bend       C7
|---------------------------------|-----------------------------------|
|---------------------------------|----------------3h4p3---1--1h3p1---|
|---3---3-3---3-------------------|---3---3-3---3---------------------|
|---2---2-2---2--x-3b3.5===3-3-3r-|---2---2-2---2---------------------|
|-3---3-----3----x----------------|-3---3-----3-----------------------|
|---------------------------------|-----------------------------------|
|
| Gtr IV (w/distortion)
|---------------------------------|-----------------------------------|
|---------------------------------|--------------------4--------(4)---|
|---------------------------------|--------------------6b8======(6)r--|
|---------------------------------|-----------------------------------|
|---------------------------------|-----------------------------------|
|---------------------------------|-----------------------------------|


 CHORUS 1
  A5              F5                A5             G#5
|---------------------------------|----------------------------|
|---------------------------------|----------------------------|
|---------------------------------|----------------------------|
|-7-7-7-7-7-7-7---3-3-3-3-3-3-3-3-|-7-7-7-7-7-7-7--6--6--6--6--|
|-7-7-7-7-7-7-7-0-3-3-3-3-3-3-3-3-|-7-7-7-7-7-7-7--6--6--6--6--|
|-5-5-5-5-5-5-5-0-1-1-1-1-1-1-1-1-|-5-5-5-5-5-5-5--4--4--4--4--|

  C5     g#     a      e5            C5     g#     a      e5
|----------------------------------|-----------------------------------|
|----------------------------------|-----------------------------------|
|--------13-13--14-14--10-10-10-10-|--------13-13--14-14--10-10-10-10--|
|-10-x-x---------------10-10-10-10-|-10-x-x---------------10-10-10-10--|
|-10-x-x-11-11--12-12---8--8--8--8-|-10-x-x-11-11--12-12---8--8--8--8--|
|--8-x-x---------------------------|--8-x-x----------------------------|

  C5       b           a        *1/4 bend       G#
|--------------------------------------------|--^4---^4-------|
|--------------------------------------------|--^4---^4-------|
|----------16-16-16-16-14-14-----------------|--^5---^5-------|
|-10-10-10--------------------12b12.5==(12)r-|--^6---^6-------|
|-10-10-10-14-14-14-14-12-12-----------------|--^6---^6-----1-|
|--8--8--8-----------------------------------|----------------|

  Gtr II
|--------------------------------|---------------------------|
|--------------------------------|---------------------------|
|--------------------------------|---------------------------|
|---5---5-5-3--------------------|---------------------------|
|-3---3---------------0--0--1----|-3-3-5-1-5-----------------|
|--------------------------------|-----------1---------------|
|
| Gtr IV
|--------------------------------|---------------------------|
|---------------4----(4)---(4)---|--------------4-----4-4-4--|
|---------------6b8==(6)---(6)r--|--------------6b8===6-6-6r-|
|--------------------------------|---------------------------|
|--------------------------------|---------------------------|
|--------------------------------|---------------------------|


 VERSE 2
    Gtrs I, III
    C7                *1/4 bend       C7                           x2
||----------------------------------|------------------------------||
||o---------------------------------|----------------4-----4-4-4--o||
||----3---3-3---3-------------------|---3---3-3---3--6b8===6-6-6r--||
||----2---2-2---2--x-3b3.5===3-3-3r-|---2---2-2---2----------------||
||o-3---3-----3----x----------------|-3---3-----3-----------------o||
||----------------------------------|------------------------------||


 CHORUS 2
  A5              F5                A5             G#5
|---------------------------------|----------------------------|
|---------------------------------|----------------------------|
|---------------------------------|----------------------------|
|-7-7-7-7-7-7-7---3-3-3-3-3-3-3-3-|-7-7-7-7-7-7-7--6--6--6--6--|
|-7-7-7-7-7-7-7-0-3-3-3-3-3-3-3-3-|-7-7-7-7-7-7-7--6--6--6--6--|
|-5-5-5-5-5-5-5-0-1-1-1-1-1-1-1-1-|-5-5-5-5-5-5-5--4--4--4--4--|

  C5     g#     a      e5            C5     g#     a      e5
|----------------------------------|-----------------------------------|
|----------------------------------|-----------------------------------|
|--------13-13--14-14--10-10-10-10-|--------13-13--14-14--10-10-10-10--|
|-10-x-x---------------10-10-10-10-|-10-x-x---------------10-10-10-10--|
|-10-x-x-11-11--12-12---8--8--8--8-|-10-x-x-11-11--12-12---8--8--8--8--|
|--8-x-x---------------------------|--8-x-x----------------------------|

  C5       b           a                        G#
|--------------------------------------------|--^4---^4---^4----|
|--------------------------------------------|--^4---^4---^4----|
|----------16-16-16-16-14-14-----------------|--^5---^5---^5----|
|-10-10-10--------------------12b12.5==(12)r-|--^6---^6---^6----|
|-10-10-10-14-14-14-14-12-12-----------------|--^6---^6---^6----|
|--8--8--8-----------------------------------|------------------|

                    BRIDGE
 Piano solo          e5                              x2
|---------|------||----------------------------------||
|--rest---|-rest-||o----------------8------8--8--8--o||
|--four---|--2---||--9-9-9-9-9-9---10b12==10-10-10r--||
|--beats--|-beats||--9-9-9-9-9-9---------------------||
|---------|------||o-7-7-7-7-7-7--------------------o||
|---------|------||----------------------------------||

   Gtr III
    C     Am      F      G      x4
||----^-8----^5-----^1-----^3---||
||o---^-8----^5-----^1-----^3--o||
||----^-9----^5-----^2-----^4---||
||----^10----^7-----^3-----^5---||
||o----------------------------o||
||--8-----5-----0-1----0-3------||

 CHORUS 3
  A5              F5
|---------------------------------|
|---------------------------------|
|---------------------------------|
|---------------------------------|
|---------------------------------|
|-5-5-5-5-5-5-5-5-1-1-1-1-1-1-1-1-|

  A5              F5                A5              F5
|---------------------------------|---------------------------------|
|---------------------------------|---------------------------------|
|---------------------------------|---------------------------------|
|---------------------------------|---------------------------------|
|---------------------------------|-7-7-7-7-7-7-7-7-3-3-3-3-3-3-3-3-|
|-5-5-5-5-5-5-5-5-1-1-1-1-1-1-1-1-|-5-5-5-5-5-5-5-5-1-1-1-1-1-1-1-1-|

  Gtrs I, III
  G#5
|-------------------------|-------------------------------|
|-------------------------|-------------------------------|
|-------------------------|-------------------------------|
|-6--6--6--6--6--6--6--6--|-6--6--6-6-6-6-6-6-6-6-6-6-6-6-|
|-6--6--6--6--6--6--6--6--|-6--6--6-6-6-6-6-6-6-6-6-6-6-6-|
|-4--4--4--4--4--4--4--4--|-4--4--4-4-4-4-4-4-4-4-4-4-4-4-|


  C5     g#     a                    C5     g#     a
|----------------------------------|----------------------------------|
|----------------------4----4-4-4--|----------------------4----4-4-4--|
|--------13-13--14-14--6b8==6-6-6r-|--------13-13--14-14--6b8==6-6-6r-|
|-10-x-x---------------------------|-10-x-x---------------------------|
|-10-x-x-11-11--12-12--------------|-10-x-x-11-11--12-12--------------|
|--8-x-x---------------------------|--8-x-x---------------------------|

  C5       b           a                        G# 
|--------------------------------------------|--^4---^4---^4---^4--|
|--------------------------------------------|--^4---^4---^4---^4--|
|----------16-16-16-16-14-14-----------------|--^5---^5---^5---^5--|
|-10-10-10--------------------12b12.5==(12)r-|--^6---^6---^6---^6--|
|-10-10-10-14-14-14-14-12-12-----------------|--^6---^6---^6---^6--|
|--8--8--8-----------------------------------|---------------------|

   G#
|--^4---^4------|----------|-----------------|
|--^4---^4------|--rest----|------4----4-4---|
|--^5---^5------|---2------|------6b8==6-6r--|
|--^6---^6------|-measures-|-----------------|
|--^6---^6------|----------|-----------------|
|---------------|----------|-----------------|


 OUTRO
  C7
|---------------------------------------------------------------------|
|------------------------------------------------------4-------4-4-4--|
|----------------3----3---------3------3---------------6b8=====6-6-6r-|
|----------------2----2---------2------2------------------------------|
|--3---------------3----------------3---------------------------------|
|---------------------------------------------------------------------|
|
|   *3/4 bend          *3/4 bend        *3/4 bend       *3/4 bend
|---------------------------------------------------------------------|
|-12b13.5==(12)r-----12b13.5==(12)r---12b13.5==(12)r--12b13.5=(12)r---|
|---------------------------------------------------------------------|
|---------------------------------------------------------------------|
|---------------------------------------------------------------------|
|---------------------------------------------------------------------|

  C7
|--------------------------------------------------------------------|
|-------------------------------------------------------4----4-4-4---|
|-----------3-----------3-3--------3--------------------6b8==6-6-6r--|
|-----------2-----------2-2--------2---------------------------------|
|--3--------------3----------3---------------------------------------|
|--------------------------------------------------------------------|
|
|   *3/4 gradual bend...      *gradual bend...............
|---------------------------15b17====15-15-15-15-15-15-15r-----------|
|-12b13.5===12-12-12-12r---------------------------------------------|
|--------------------------------------------------------------------|
|--------------------------------------------------------------------|
|--------------------------------------------------------------------|
|--------------------------------------------------------------------|

  C7
|----------------------------------------------------------|
|-------------------------------------4-----(4)--4--4---4--|
|-------------3----3-------3-----3----6b8h==(6)--6--6---6r-|
|-------------2----2-------2-----2-------------------------|
|--3------------3--------------3---------------------------|
|----------------------------------------------------------|
|
|                                       *1/2 bend 
|-20b22h=(20)r-----20b22h=(20)r------/20b21h=20--20-20r\---|
|----------------------------------------------------------|
|----------------------------------------------------------|
|----------------------------------------------------------|
|----------------------------------------------------------|
|----------------------------------------------------------|

  C7
|----------------------------|
|----------------4----4-4-4--|
|---3---3-3---3--6b8==6-6-6r-|
|---2---2-2---2--------------|
|-3---3-----3----------------|
|----------------------------|

  C7               *1/4 bend       C7
|--------------------------------|----------------------------|
|--------------------------------|----------------4----4-4-4--|
|---3---3-3---3------------------|---3---3-3---3--6b8==6-6-6r-|
|---2---2-2---2--x-3b3.5==3-3-3r-|---2---2-2---2--------------|
|-3---3-----3----x---------------|-3---3-----3----------------|
|--------------------------------|----------------------------|

  C7                *1/4 bend      Gtr II (clean)
|--------------------------------|----------------*|
|--------------------------------|----------------*|
|---3---3-3---3------------------|----------------*|
|---2---2-2---2--x-3b3.5==3-3-3r-|-2-----5-5-3----*|
|-3---3-----3----x---------------|-3-x-x----------*|
|--------------------------------|----------------*|


Tablature Legend
----------------
 h   - hammer-on
 p   - pull-off
 b   - bend
 r   - bend release (if no number after the r, then release immediately)
 /\  - slide into or out of (from/to "nowhere")
 =   - hold bend; also acts as connecting device for hammers/pulls
 x   - on rhythm slash represents muted slash
 ^   - arpeggio (downward sweep of pick on a chord)

Misc Legend
-----------
 |  - bar
||  - double bar
||o - repeat start
o|| - repeat end
*|  - double bar (ending)

============================================================================
6. Innocence Again
============================================================================







Intro
         Dm                 Bb           F            A
|--------5-|---5---5--5-|------------|------------|----------------|
|--------6-|---6---6--6-|---6---6--6-|---1---1--1-|---5---5-5-5----|
|--------7-|---7---7--7-|---7---7--7-|---2---2--2-|---6---6-6-6----|
|--------7-|---7---7--7-|---8---8--8-|---3---3--3-|---7---7-7-7----|
|--------5-|------------|---8---8--8-|---3---3--3-|---7---7---7----|
|----------|------------|------------|------------|----------------|
|
|----------|------------|------------|------------|--------------1-|
|----------|------------|------------|------------|-------------3--|
|----------|------------|------------|------------|------------2---|
|----------|------------|------------|------------|-----------0----|
|----------|------------|------------|------------|----------------|
|----------|------------|------------|------------|----------------|


 Verse 1
  Dm                     Bb            F               A
|----5---5--5----|------------------|-------------|----------------------|
|----6---6--6----|------6---6--6----|----1---1--1-|----5-----5----5------|
|----7---7--7----|------7---7--7----|----2---2--2-|----6-----6----6------|
|----7---7--7----|------8---8--8----|----3---3--3-|----7-----7----7------|
|----------------|------8---8--8----|----3---3--3-|----7-----7----7------|
|----------------|------------------|-------------|----------------------|
|
|----------------|------------------|-------------|------------------1---|
|--------------3-|------------------|-------------|-2--2-2-3---5----3----|
|-------------3--|----------------2-|-------------|-2--2-2-2---2---2-----|
|------------3---|---------------3--|-------------|-2--2-2-2---2--0------|
|-----------1----|--------------3---|-------------|-0--0---0---0---------|
|----------------|-------------1----|-------------|----------------------|

  Dm                 Bb                 F               A
|------5---5--5----|------------------|---------------|----------------|
|------6---6--6----|------6---6--6----|------1---1--1-|----5-----5---5-|
|------7---7--7----|------7---7--7----|------2---2--2-|----6-----6---6-|
|------7---7--7----|------8---8--8----|------3---3--3-|----7-----7---7-|
|------------------|------8---8--8----|------3---3--3-|----7-----7---7-|
|------------------|------------------|---------------|----------------|
|
|------------------|------------------|---------------|----------------|
|----------------3-|------------------|---------------|-2--2-2-3-2-----|
|---------------3--|----------------2-|---------------|-2--2-------2---|
|--------------3---|---------------3--|---------------|-2--2-----------|
|-------------1----|--------------3---|---------------|-0--0-----------|
|------------------|-------------1----|---------------|----------------|


   Pre-Chorus
    Gtr III (plays chords notated by slashes)
    Bb5              F5                G5              C5
    / / / / / //  /  / / / / / // /    / / / / / // /  /  /  /
            ~                ~      2x           ~
||-----------------|----------------||---------------|-------------||
||o----------------|---------------o||---------------|-------------||
||----------7------|---------2------||---------3-----|-5--5--5-----||
||-----------------|----------------||---------------|-5--5--5-----||
||o-----8-8----8\--|-----3-3----3--o||-----5-5----5--|-3--3--3-----||
||--6-6------------|-1-1------------||-3-3-----------|-------------||


   Chorus 1
    Dm                Bb
||--5--5------5-5-5-|----------------|
||o-6--6------6-6-6-|--6---6---6-6-6-|
||--7--7------7-7-7-|--7---7---7-7-7-|
||--7--7------7-7-7-|--8---8---8-8-8-|
||o-5--5------------|--8---8---8-8-8-|
||------------------|--6---6---------|
|
||------------------|----------------|
||o---------3-5---6-|----------------|
||-------/2---------|----------------|
||------------------|----------------|
||o-----------------|----------------|
||------------------|----------------|


 1st ending
  F                   A
|-------------------|---------------------||
|-1---1-------1-1-1-|-5---5-------5-5-5--o||
|-2---2-------2-2-2-|-6---6-------6-6-6---||
|-3---3-------3-3-3-|-7---7-------7-7-7---||
|-3---3-------3-3-3-|-7---7-------7-7-7--o||
|-1---1-------------|-5---5---------------||
|
|-------------------|---------------------||
|-------------------|--------------------o||
|-3-2---------------|-6-------------------||
|-------3-----------|---7-----------------||
|-------------------|-------7------------o||
|-------------------|---------------------||


  2nd ending
  Bb                A         (Dm)                                      2x
|-----------------|--------||----------------------|--------------------||
|-----------------|--------||o-----6---------------|-------6-----------o||
|-7---7-7---7-7-7-|-6------||--7---------------5---|--7------------5----||
|-8---8-8---8-8-8-|-7------||----7----7-5----7---7-|-----7---7-5-7---7--||
|-8---8-8---8-8-8-|-7------||o---------------------|-------------------o||
|-6---6-6---6-6-6-|-5------||----------------------|--------------------||
|
|-----------------|--------||----------------------|--------------------||
|-----------------|--------||o----------3---/5---5-|-------------------o||
|-3---------------|--------||--------/2------------|--------------------||
|---3-------------|--------||----------------------|--------------------||
|-------1---------|-0------||o---------------------|-------------------o||
|-----------------|--------||----------------------|--------------------||


 Verse 2
  Dm           Bb           F            A
|---5---5--5-|------------|------------|---------------|
|---6---6--6-|---6---6--6-|---1---1--1-|---5-5-5-5-5-5-|
|---7---7--7-|---7---7--7-|---2---2--2-|---6-6-6-6-6-6-|
|---7---7--7-|---8---8--8-|---3---3--3-|---7-7-7-7-7-7-|
|------------|---8---8--8-|---3---3--3-|---7-7-7-7-7-7-|
|------------|------------|------------|---------------|
                                           
  Dm           Bb             F            A
|---5---5--5-|--------------|------------|----------------|
|---6---6--6-|---6-6-6-6--6-|---1---1--1-|---5-5-5-5-5-5--|
|---7---7--7-|---7-7-7-7--7-|---2---2--2-|---6-6-6-6-6-6--|
|---7---7--7-|---8-8-8-8--8-|---3---3--3-|---7-7-7-7-7-7--|
|------------|---8-8-8-8--8-|---3---3--3-|---7-7-7-7-7-7--|
|------------|--------------|------------|----------------|


 Play Pre-Chorus again


 Chorus 2
    Dm                Bb
||--5--5------5-5-5-|----------------|
||o-6--6------6-6-6-|--6---6---6-6-6-|
||--7--7------7-7-7-|--7---7---7-7-7-|
||--7--7------7-7-7-|--8---8---8-8-8-|
||o-5--5------------|--8---8---8-8-8-|
||------------------|--6---6---------|
|
||------------------|----------------|
||o---------3-5---6-|----------------|
||-------/2---------|----------------|
||------------------|----------------|
||o-----------------|----------------|
||------------------|----------------|


 1st ending
  F                   A
|-------------------|---------------------||
|-1---1-------1-1-1-|-5---5-------5-5-5--o||
|-2---2-------2-2-2-|-6---6-------6-6-6---||
|-3---3-------3-3-3-|-7---7-------7-7-7---||
|-3---3-------3-3-3-|-7---7-------7-7-7--o||
|-1---1-------------|-5---5---------------||
|
|-------------------|---------------------||
|-------------------|--------------------o||
|-3-2---------------|-6-------------------||
|-------3-----------|---7-----------------||
|-------------------|-------7------------o||
|-------------------|---------------------||


  2nd ending
  Bb                  A
|-------------------|-----------||
|-------------------|-----------||
|-7---7-7-----7-7-7-|-----------||
|-8---8-8-----8-8-8-|-----------||
|-8---8-8-----8-8-8-|---------3-||
|-6---6-6-----6-6-6-|-5---------||
|
|-------------------|-----------||
|-------------------|-----------||
|-3-----------------|-----------||
|---3---------------|-----------||
|-------1-----------|-0---------||
|-------------------|-----------||


 Guitar Solo
  (dist elec)
|-------------------|----------------|---------------|----------------|
|-------------------|----------------|---------------|----------------|
|--------3----3-----|----------------|----3--5-5-3---|----6-6-7-6-----|
|----3---3h5--3-----|------------3---|---------------|------------8-7-|
|-5----5--------5-3-|----3-------3---|---------------|----------------|
|-------------------|-1--1-1-/5----5-|-3-----------3-|-5--------------|


   (acoustic)
|-------------5--/8-|-------6-6-/8-5-|-(5)\------------|---------------|
|---3-/5-6-/8-------|----------------|-------6-6--/10--|-10\-5-5-/8-6/-|
|-------------------|----------------|-----------------|---------------|
|-------------------|----------------|-----------------|---------------|
|-------------------|----------------|-----------------|---------------|
|-------------------|----------------|-----------------|---------------|

                                                            Bridge
|---------------|--------------|-------------|-------------|------|
|-7----------/6-|--------------|------6\--1--|-2---2-3-5-3-|-rest-|
|---7-----------|-----5--------|-------------|-------------|-nine-|
|-----7---------|-------5\3-/7-|----7--------|-------------|-bars-|
|-------7\5-----|--------------|-------------|-------------|------|
|---------------|--------------|-------------|-------------|------|


   Chorus 3
    Dm                Bb
||--5--5------5-5-5-|----------------|
||o-6--6------6-6-6-|--6---6---6-6-6-|
||--7--7------7-7-7-|--7---7---7-7-7-|
||--7--7------7-7-7-|--8---8---8-8-8-|
||o-5--5------------|--8---8---8-8-8-|
||------------------|--6---6---------|
|
||------------------|----------------|
||o---------3-5---6-|----------------|
||-------/2---------|----------------|
||------------------|----------------|
||o-----------------|----------------|
||------------------|----------------|


 1.
  F                   A
|-------------------|---------------------||
|-1---1-------1-1-1-|-5---5-------5-5-5--o||
|-2---2-------2-2-2-|-6---6-------6-6-6---||
|-3---3-------3-3-3-|-7---7-------7-7-7---||
|-3---3-------3-3-3-|-7---7-------7-7-7--o||
|-1---1-------------|-5---5---------------||
|
|-------------------|---------------------||
|-------------------|--------------------o||
|-3-2---------------|-6-------------------||
|-------3-----------|---7-----------------||
|-------------------|-------7------------o||
|-------------------|---------------------||


  2.
  Bb                  A
|-------------------|--------------|
|-------------------|--------------|
|-7---7-7-----7-7-7-|-6------------|
|-8---8-8-----8-8-8-|-7------------|
|-8---8-8-----8-8-8-|-7------------|
|-6---6-6-----6-6-6-|-5------------|
|
|                          1/4 bend
|-------------------|--------------|
|-------------------|------5b5.5---|
|-3-----------------|--------------|
|---3---------------|--------------|
|-------1-----------|-0------------|
|-------------------|--------------|


   Outro
    Bb5                      F5
||-------------------------|--------------------------|
||o------------------------|--------------------------|
||--------------2--3--2----|---------------2--3--2----|
||--3-----3--------------3-|------------------------3-|
||o-1-----1----------------|--3------3----------------|
||-------------------------|--1------1----------------|
|
||-------------------------|--------------------------|
||o------------------------|--------------------------|
||--------------2--3--2----|---------------2--3--2----|
||-----------------------3-|------------------------3-|
||o------------------------|--------------------------|
||-------------------------|--------------------------|
|
||-------------------------|--------------------------|
||o------10----10-11-10----|--------10----10-11-10----|
||----10----10----------10-|-----10----10----------10-|
||--8----------------------|--------------------------|
||o------------------------|--8-----------------------|
||-------------------------|--------------------------|


 1.,2.,3. endings
  Bb5                        F5                        4x
|--------------------------|---------------------------||
|--------------------------|--------------------------o||
|---------------2--3--2----|---------------3--2-0------||
|--3------3--------------3-|-----------------------3---||
|--1------1----------------|--3------3----------------o||
|--------------------------|--1------1-----------------||
|
|                                                      4x
|--------------------------|---------------------------||
|--------------------------|--------------------------o||
|---------------2--3--2----|---------------3--2-0------||
|------------------------3-|-----------------------3---||
|--------------------------|--------------------------o||
|--------------------------|---------------------------||
|
|                                                      4x
|--------------------------|---------------------------||
|--------10----10-11-10----|--------10----11-10-8-----o||
|-----10----10----------10-|-----10----10---------10---||
|--8-----------------------|---------------------------||
|--------------------------|--8-----------------------o||
|--------------------------|---------------------------||


  4th ending
  Bb5                       F
|-------------------------|----------|--------*|
|-------------------------|----------|--------*|
|---------3--2--3--2-0----|----------|--------*|
|--3--------------------3-|----------|--------*|
|--1----------------------|----------|--------*|
|-------------------------|-1--------|--------*|
|
|-------------------------|----------|--------*|
|-------------------------|----------|--------*|
|---------3--2--3--2-0----|----------|--------*|
|-----------------------3-|----------|--------*|
|-------------------------|----------|--------*|
|-------------------------|-1--------|--------*|
|
|-------------------------|----------|--------*|
|--------11-10-11-10-8----|----------|--------*|
|-----10---------------10-|----------|--------*|
|--8----------------------|----------|--------*|
|-------------------------|-8--------|-(8)----*|
|-------------------------|----------|--------*|

============================================================================
7. Playing for Keeps
============================================================================

Verse:
E,A

Chorus:
G,D,C
G,D,C
E,D,C
G,D,C

Bridge:
G,C,A,D

============================================================================
8. Loser
============================================================================



STANDARD TUNING
EADGBe

------------------------------|
----9br9----------9br9--------|
----9br9----------9br9--------|
------------------------------|x3
-11-------99--11------77------|
--0-------77---9------55------|

------------------------------|
-----9br9---------------------|
-----9br9---------------------|
---------------66666666-------|
-11--------99--66666666-------|
--0--------77--44444444-------|

chorus
-----------------------------------------------------|
----------------------------------9b10r9-------------|
------13b14r13---------------------------------------|
-----------------------------------------------------|
-11-------------11-9-9-x-x--11-----------11-7-7-x-x--|
--0--------------0-7-7-x-x---9------------9-5-5-x-x--|


-----------------------------------------------------|
----------------------------------9b10r9-------------|
------13b14r13---------------------------------------|
-----------------------------------------------------|
-11-------------11-9-9-x-x--11-----------11-9-9-8----|
--0--------------0-7-7-x-x---9------------9-7-7-6----|

============================================================================
9. Economy of Mercy
============================================================================

Intro:
D, Bm, G, A, D, Bm, G, Em

Verse:
Bm  Em  (F#m)  G
Bm  Em  (F#m)  G

Pre-Chorus:
Em  F#m  G
Em  F#m  G  A

Chorus:
A  F#m  D  E
A  F#m  D  E
A  E  D

Verse 2

Pre-Chorus

Chorus

Bridge:
Bm  (F#m)  G
Bm  A  Em
G  D  Em

Bm  A  Em  G  D  A
Bm  A  G  Em  D  A  D

============================================================================
10. Erosion
============================================================================

e---------------------------------------------------
B----------------------------------------------------
G----7--9--7-----------------------------------------
D----------------------9-9-9-9--------7-7-7-7-7-7-7
A--7----------10---7-----------10---7---------------
E----------------------------------------------------

Chorus:
EBAB
EBAB
C#BAB
EBAB

============================================================================
11. Living is Simple
============================================================================

Intro:
(E5  D5) x2

VERSE 1:
(E5  D5) x4
 Bsus  A5  E5

PRE-CHORUS:
C#m  Bsus
C#m  Bsus  A5

CHORUS:
(E5  D5  Bsus  A5) x2
 C#m  Bsus
 C#m  Bsus  A5

INTERLUDE
(E5  D5) x2

VERSE 2:
(E5  D5) x4
 Bsus  A5  E5
 D5  E5  D5

BRIDGE:
C#m  Bsus  A5
C#m  Bsus  A5  Bsus

CHORUS:
(E5  D5  Bsus  A5) x2
 C#m  Bsus
 C#m  Bsus  A5  F#m11

Outro
(E5  D5  Bsus  A5  Bsus) x4
 E5  D5  Bsus  A5  E



NOTE: Well here you go you switchfoot fans  ENJOY!!!

                                                -Asa









comments
print report bad tab
I want to post or [tab]
guest
You may want to rate the tab now too:
select rating
Please do not post tabs as comments. Select "correction" instead!