Oops, an error
Loading. Please wait.

Oh Gravity Tab

ver1
ver1

Album

Whole song

Interactive

More versions @911Tabs.com
15,078 views 1 this week
11 commentsread comments
1 2 3 4 5
accurate
x 12
Autoscroll
+/-
esc
set tempo
stop
Contributor
Difficulty
intermediate
Hey! There's an official Ultimate Guitar app which is ideal
for learning songs when you're away from computer. Get the app
WARNING: You are trying to view
                                    content from Ultimate-Guitar.com
                                    in an unauthorized application,
                                    which is prohibited.

                                    Please use an official Ultimate
                                    Guitar Tabs application for iPhone,
                                    iPad or Android to access legitimate
                                    chords, guitar, bass, and drum tabs
                                    from Ultimate-Guitar.com database.

                                    Type "ultimate guitar tabs" in Apple
                                    App Store's or Android Market's
                                    search to find the application.
Album: Oh! Gravity. (6th)
Artist: Switchfoot
Number of Tracks: 12 (plus bonus track!!)

============================================================================

Track List:
01. Oh! Gravity.
02. American Dream
03. Dirty Second Hands
04. Awakening
05. Circles
06. Amateur Lovers
07. Faust, Midas, and Myself
08. Head Over Heels (In This Life)
09. Yesterdays
10. Burn Out Bright
11. 4:12
12. Let Your Love be Strong
BONUS: Revenge (only for pre-ordered edition)

============================================================================

This is an awesome album. I finally got it all tabbed, so here ya go!

============================================================================

01. Oh! Gravity.

guitars used: 2 electrics
tuning:       Drop D

Intro: guitar 1
/e------7-----------7-----------------------7----------->\
|B------5-----------5-----------3-----------5----------->|
|G----66--6-66446-66--6-66446-44--4-44224-66--6-664----->|
|D-------------------------------------------------7---->|
|A------------------------------------------------------>|
|D------------------------------------------------------>|
|                                                        |
|Intro: guitar 2                                         |
|e------------------------------------------------------>|
|B------------------------------------------------------>|
|G------------------------------------------------------>|
|D-0-7---7-0---0-7---7-0---0-5---5-0---0-7---7-0---0-7-->|
|A-0-7---7-0---0-7---7-0---0-5---5-0---0-7---7-0---0-7-->|
\D-0-7---7-0---0-7---7-0---0-5---5-0---0-7---7-0---0-7-->/

Verse 1: guitar 1
/e------------------------------------------------------------------------>\
|B----------------55335------------55335---------------------------------->|
|G----------------66446------------66446---------------------------------->|
|D------------------------------------------------------------------------>|
|A------------------------------------------------------------------------>|
|D------------------------------------------------------------------------>|
|             (color bar)       (parked car)                               |
|Verse 1: guitar 2                                                         |
|e------------------------------------------------------------------------>|
|B------------------------------------------------------------------------>|
|G------------------------------------------------------------------------>|
|D-+++++++++++++++++++77+++++++++++++++++++55++++++++++++++77++++++++++++->|
|A-+++++++++++++++++++77+++++++++++++++++++55++++++++++++++77++++++++++++->|
\D-+++++++++++++++++++77+++++++++++++++++++55++++++++++++++77++++++++++++->/
There’s a fracture in the color bar/in the backseat of a parked car/by the
liquor store where the street light/keep you company ‘till the next night

Verse 1: guitar 1
       (same town)       (same glow)     (freeway)      (company)
/e--------9/12\9-----------9/12\9---------7/10\7----------9/12\9---------->\
|B----------------55335------------55335----------33223------------------->|
|G----------------66446------------66446----------44224----------6666----->|
|D---------------------------------------------------------------66663333->|
|A---------------------------------------------------------------44443333->|
|D-------------------------------------------------------------------3333->|
|              (same scar)     (liquor store)  (headlight)     (next night)|
|Verse 1: guitar 2                                                         |
|e------------------------------------------------------------------------>|
|B------------------------------------------------------------------------>|
|G---------------------------------------------------------------6666----->|
|D-++++0-7-++++7-0-++++0-7-++++7-0-++++0-5-++++5-0-++++0-7-++++++66663333->|
|A-++++0-7-++++7-0-++++0-7-++++7-0-++++0-5-++++5-0-++++0-7-++++++44443333->|
\D-++++0-7-++++7-0-++++0-7-++++7-0-++++0-5-++++5-0-++++0-7-++++++----3333->/
In the same town there’s the same scar/in the same glow of the liquor store/
by the freeway where the headlight/keeps her company ‘till the next night

Chorus: both guitars (r= 10th fret)
e------------------------------------------------------------------>
B-rrrrrrrrrrrrrrrrrrrrrrrrrrrrrrrrrrrrrrrrrrrrrrrrrrrrrrrrrrrrrrrr->
G-9999999999999999999999999999999999999999999999999999999999999999->
D-7777777700000000777777770000000077777777000000007777777700000000->
A-7777777700000000777777770000000077777777000000007777777700000000->
D-7777777700000000777777770000000077777777000000007777777700000000->
Oh! gravity why can’t we seem to keep it together? Sons of my enemies, why
can’t we seem to keep it together?

Fill: guitar 1
/e----7-----------7--->\
|B----5-----------5--->|
|G--66--6-66446-66--6->|
|D-------------------->|
|A-------------------->|
|D-------------------->|
|                      |
|Fill: guitar 2        | PIANO THING
|e-------------------->|
|B-------------------->|
|G-------------------->|
|D-7---7-0---0-7------>|
|A-7---7-0---0-7------>|
\D-7---7-0---0-7------>/

Verse 1: guitar 1
        (back room)     (thin man)      (red jaw)        (headline)
/e--------9/12\9--9\7/9---9/12\9--9\7/9---7/10\7--7\5/7---9/12\9/ - - 21-->\
|B------------------------------------------------------------------------>|
|G------------------------------------------------------------------------>|
|D------------------------------------------------------------------------>|
|A------------------------------------------------------------------------>|
|D------------------------------------------------------------------------>|
|               (Pentagon)     (line drawn)    (red bite)                  |
|Verse 1: guitar 2                                                         |
|e------------------------------------------------------------------------>|
|B------------------------------------------------------------------------>|
|G---------------------------------------------------------------6666----->|
|D-++++0-7-++++7-0-++++0-7-++++7-0-++++0-5-++++5-0-++++0-7-++++++66663333->|
|A-++++0-7-++++7-0-++++0-7-++++7-0-++++0-5-++++5-0-++++0-7-++++++44443333->|
\D-++++0-7-++++7-0-++++0-7-++++7-0-++++0-5-++++5-0-++++0-7-++++++----3333->/
In the back room of the pentagon/there’s a thin man with the line drawn/
with a red jaw and a red bite/watch the headline on the next night

---REPEAT CHORUS

chorus 2: both guitars (r=10th fret)
e-5555555555555555------------------------------------------------->
B-7777777777777777rrrrrrrrrrrrrrrrrrrrrrrrrrrrrrrr----------------->
G-666666666666666699999999999999999999999999999999----------------->
D-4444444400000000777777770000000077777777000000004444444400000000->
A-4444444400000000777777770000000077777777000000004444444400000000->
D-4444444400000000777777770000000077777777000000004444444400000000->
Why this tragedy? Why can’t we seem to keep it together? oh gravity why
can’t we seem to pull it together

Bridge: guitar 1
          (fallout)                      (connected)
/e------------------------------------------------------------------>\
|B------------------------------------------------------------------>|
|G------------------------------------------------------------------>|
|D---6/7-----6/7-----6/7-------------6/7-----6/7-----6/7--77664422-->|
|A------------------------------------------------------------------>|
|D------------------------------------------------------------------>|
| (fallout)      (found out)     (connected)      (meant it)         |
|Bridge: guitar 2                                                    |
|e------------------------------------------------------------------>|
|B------------------------------------------------------------------>|
|G------------------------------------------------------------------>|
|D-77------00------77------0000000077------00------77------00000000->|
|A-77------00------77------0000000077------00------77------00000000->|
\D-77------00------77------0000000077------00------77------00000000->/
In the fallout, the fallout we found out/the hype won’t get you through/
connected, connected, I meant it; the hype won’t get you through

Fill 2: both guitars (r= 10th fret)
e---------------------------------->
B-rrrrrrrrrrrrrrrrrrrrrrrrrrrrrrrr->
G-99999999999999999999999999999999->
D-77777777000000007777777700000000->
A-77777777000000007777777700000000->
D-77777777000000007777777700000000->
Through!

Chorus 3: guitar 3/undistorted guitar (r= 10th fret)
e----------------------------------------------------->
B-8-r-8-7--r-7---r---8---7--8-r-8-7--r-7----r-7---r-7->
G--------------9---9---9-----------------9------9----->
D----------------------------------------------------->
A----------------------------------------------------->
D----------------------------------------------------->
Oh gravity why can’t we seem to keep it together? Oh gravity why can’t we
seem to pull it together?

---REPEAT CHORUS 2

chorus 4: both guitars (r= 10th fret)
e--------------------------------------------------------------->
B-rrrrrrrrrrrrrrrrrrrrrrrrrrrrrrrrrrrrrrrrrrrrrrrrrrrrrrrrr----->
G-999999999999999999999999999999999999999999999999999999999----->
D-777777770000000077777777000000007777777700000000777777770----->
A-777777770000000077777777000000007777777700000000777777770----->
D-777777770000000077777777000000007777777700000000777777770----->
Lalalalalala lala la la la lalalalala la lalalalala lalala la let’s pull it
together

============================================================================

02. American Dream

guitars used: 2 electrics
tuning:       Standard

Intro: guitar 1 - b= bend
/e-------------5bbbbbb-2---5bbbbbb-2---9-7-5--4-2-0------------->\
|B-------------------------------------------------------------->|
|G-------------------------------------------------------------->|
|D-------------------------------------------------------------->|
|A-------------------------------------------------------------->|
|E-------------------------------------------------------------->|
|                                                                |
|Intro: guitar 2 - r= 11th fret                                  |
|e-------------------------------------------------------------->|
|B-------------------------------------------------------------->|
|G-44-44-44-44-44-44-44-44-44-44-44-44-------------44-44-44-44-->|
|D-44-44-44-44-44-44-44-44-44-44-44-44-r-9-7--6-4-244-44-44-44-->|
|A-22-22-22-22-22-22-22-22-22-22-22-22-------------22-22-22-22-->|
\E-------------------------------------9-7-5--4-2-0------------->/

verse 1: guitar 1                                                |gt. 2
e-------------------------------------------------------------------------->
B-------------------------------------------------------------------------->
G-44444444444444444444444444444444444444444444444444444444444444--44444444->
D-44444444444444444444444444444444444444444444444444444444444444--44444444->
A-22222222222222222222222222222222222222222222222222222222222222--22222222->
E-------------------------------------------------------------------------->
When success is equated with excess/the ambition for excess wrecks us/as
top of the mind becomes the bottom line/when success is equated with excess
 
verse 1: guitar 2
e------------------------------------------------------------------------->
B------------------------------------------------------------------------->
G-44-44-44-44-44-44-44-44-44-44-44-44-44-44-44-44-44-44-44-44-44-44-44-44->
D-44-44-44-44-44-44-44-44-44-44-44-44-44-44-44-44-44-44-44-44-44-44-44-44->
A-22-22-22-22-22-22-22-22-22-22-22-22-22-22-22-22-22-22-22-22-22-22-22-22->
E------------------------------------------------------------------------->
If your time ain’t been nothing for money/I start to feel really bad for
you, honey/Maybe honey, put your money where your mouth’s been running/if
your time ain’t been nothing but money

Pre-chorus: guitar 1
/e-0~------0~------0~--------------->\
|B-0~------0~------0~--------------->|
|G-1~------3~----------------------->|
|D-2~------4~------6~------8~------->|
|A-2~------4~------6~------9~------->|
|E-0~------2~------4~------6~------->|
|Pre-chorus: guitar 2 (off-beat)     |
|e---------------------------------->|
|B---------------------------------->|
|G--4-4-4-4-4-4-4-4-4-4-4-4-4-4-4-4->|
|D---------------------------------->|
|A---------------------------------->|
\E---------------------------------->/
I want out of this machine/it doesn’t feel like freedom

Chorus: guitar 1
/e------------------------------------------------7-7-7-7-7-7-7-7-7-7-7-7->\
|B-------------------------------------------------7-7-7-7-7-7-7-7-7-7-7-->|
|G-44444444444444444444433--444444444444444444444------------------------->|
|D-44444444444444444444444--444444444444444444444------------------------->|
|A-22222222222222222222211--222222222222222222222------------------------->|
|E------------------------------------------------------------------------>|
|Chorus: guitar 2  -(r= 11th fret)-                                        |
|e------------------------------------------------------------------------>|
|B------------------------------------------------------------------------>|
|G-4444444444-----------33--4444444444-----------6666666666rrrrrrrrrrrrrr->|
|D-44444444442222222222244--4444444444222222222226666666666rrrrrrrrrrrrrr->|
|A-22222222222222222222211--222222222222222222222444444444499999999999999->|
\E-----------00000000000--------------00000000000------------------------->/
This ain’t my American dream/I want to live and die for bigger things/I’m
tired of fighting for just me/This ain't my American dream

Fill: guitar 1
/e-5bbbbbb-2---5bbbbbb-2---9-7-5--4-2-0------------->\
|B-------------------------------------------------->|
|G-------------------------------------------------->|
|D-------------------------------------------------->|
|A-------------------------------------------------->|
|E-------------------------------------------------->|
|                                                    |
|fill: guitar 2                                      |
|e-------------------------------------------------->|
|B-------------------------------------------------->|
|G-44-44-44-44-44-44-44-44-------------44-44-44-44-->|
|D-44-44-44-44-44-44-44-44-r-9-7--6-4-244-44-44-44-->|
|A-22-22-22-22-22-22-22-22-------------22-22-22-22-->|
\E-------------------------9-7-5--4-2-0------------->/

verse 2: guitar 1
/e-------------5bbbbbb-2222------------------------------------->\
|B-------------------------------------------------------------->|
|G-------------------------------------------------------------->|
|D-------------------------------------------------------------->|
|A-------------------------------------------------------------->|
|E-------------------------------------------------------------->|
|                                                                |
|verse 2: guitar 2 -(*= palm mute)-                              |
|e-------------------------------------------------------------->|
|B-------------------------------------------------------------->|
|G-44-44-44-44-44-44-44-44-44-44-44-44-44-44-44-44-4--4--4--4--->|
|D-44-44-44-44-44-44-44-44-44-44-44-44-44-44-44-44-4--4--4--4--->|
|A-22-22-22-22-22-22-22-22-22-22-22-22-22-22-22-22-2--2--2--2--->|
\E-------------------------------------------------------------->/
   ** ** ** ** ** ** ** ** ** ** ** ** ** ** ** **
When success is equated with excess/When we’re fighting for the Beamer, the
Lexus/As the heart and soul breathe in the company goals/Where success is
equated with excess

---REPEAT PRE-CHORUS

---REPEAT CHORUS

fill: guitar 2
e------------->
B------------->
G-44-44-44-44->
D-44-44-44-44->
A-22-22-22-22->
E------------->

Bridge: guitar 1
/e-5bbbbb-2------5bbbbb-2------5bbbbb-2-----5bbbbb-2-------9-7-5--4-2-0->\
|B---------------------------------------------------------------------->|
|G---------------------------------------------------------------------->|
|D---------------------------------------------------------------------->|
|A---------------------------------------------------------------------->|
|E---------------------------------------------------------------------->|
|                                                                        |
|Bridge: guitar 2                                                        |
|e---------------------------------------------------------------------->|
|B---------------------------------------------------------------------->|
|G---------44-44---------44-44----------------------44-44--------------->|
|D---------44-44---------44-44---------22-22--------44-44--r-9-7--6-4-2->|
|A---------22-22---------22-22---------22-22--------22-22--------------->|
\E-------------------------------------00-00---------------9-7-5--4-2-0->/
‘Cause baby’s always talkin’ ‘bout a ring/and talk has always been the
cheapest thing/Is it true would you do what I want you to/If I show up with
the right amount of bling? Like a puppet on a monetary string

bridge: guitar 1
/e-7-7-7-7-7-7-9-7-5--4-2-0----------------------------------------------->\
|B--7-7-7-7-7-7----------------------------------------------------------->|
|G------------------------------------------------------------------------>|
|D------------------------------------------------------------------------>|
|A------------------------------------------------------------------------>|
|E------------------------------------------------------------------------>|
|                                                                          |
|bridge: guitar 2 (r= 11th fret)                                           |
|e------------------------------------------------------------------------>|
|B------------------------------------------------------------------------>|
|G-44-44-44-44--------------666666666666/rrrrrrrrrrrrrrrrrr~-------------->|
|D-44-44-44-44-r-9-7--6-4-2-666666666666/rrrrrrrrrrrrrrrrrr~-------------->|
|A-22-22-22-22--------------444444444444/999999999999999999~-------------->|
\E-------------9-7-5--4-2-0----------------------------------------------->/
Maybe we’ve been caught singing Red, white, blue, and green But that ain’t
my America, That ain’t my American dream

---REPEAT CHORUS

outro: guitar 1
/e-------------------------------------9-7-5--4-2-0------------->\
|B-------------------------------------------------------------->|
|G-------------------------------------------------------------->|
|D-------------------------------------------------------------->|
|A-------------------------------------------------------------->|
|E-------------------------------------------------------------->|
|                                                                |
|outro: guitar 2 - r= 11th fret                                  |
|e-------------------------------------------------------------->|
|B-------------------------------------------------------------->|
|G-44-44-44-44-44-44-44-44-44-44-44-44-------------4~----------->|
|D-44-44-44-44-44-44-44-44-44-44-44-44-r-9-7--6-4-24~----------->|
|A-22-22-22-22-22-22-22-22-22-22-22-22-------------2~----------->|
\E-------------------------------------9-7-5--4-2-0------------->/

============================================================================

03. Dirty Second Hands

guitars used: acoustic and electric
tuning:       Drop D

Intro: acoustic
e----------0----------0----------0->
B--------3-3--------3-3--------3-3->
G--------2-2--------2-2--------2-2->
D-3-0-0--0-0-3-0-0--0-0-3-0-0--0-0->
A----3----------3----------3------->
D------0---0------0---0------0---0->

Verse 1: acoustic (listen for strumming pattern)
e-------------------------------------------------------------0----------0->
B-------------------------------------------------------------3--------3-3->
G--7--9----10--12---11---9---10---9---7--9----10--12--------2-2--------2-2->
D----------------------------------------------------3-0-0--0-0-3-0-0--0-0->
A--5--7----8---10---9----7---8----7---5--7----8---10----3----------3------->
D-00-00--0-0--00--0-0--0-0--00---00--00-00--0-0--00-------0---0------0---0->
Please don’t be so naïve/You know you’re not fooling anyone/You’re not as
tough as you think/With dirty second hands, The dirty second hands

Verse 1: acoustic (listen for strumming pattern)
e-------------------------------------------------------------0----------0->
B-------------------------------------------------------------3--------3-3->
G--7--9----10--12---11---9---10---9---7--9----10--12--------2-2--------2-2->
D----------------------------------------------------3-0-0--0-0-3-0-0--0-0->
A--5--7----8---10---9----7---8----7---5--7----8---10----3----------3------->
D-00-00--0-0--00--0-0--0-0--00---00--00-00--0-0--00-------0---0------0---0->
Can’t get nothing for free/It becomes so predictable/You start fighting to
breathe/The dirty second hands, Your dirty second hands

        (those are tens, elevens, and twelves)
chorus: Guitar 1          REPEAT to here|           (bend hard and slow)
/e------------------------------------------------|----------------------->\
|B------------------------------------------------|-6b-------------------->|
|G-1010---1010------------------------------------|-5b-------------------->|
|D-10109-910109-9-101011111212--------------------|----------------------->|
|A-8-8-9-98-8-9-9-101011111212--------------------|----------------------->|
|D-----9-9----9-9-101011111212--------------------|----------------------->|
|                                       |         |                        |
|chorus: acoustic         REPEAT to here|         |                        |
|e------------------------------0----------0------|----------------------->|
|B------------------------------3----------3------|----------------------->|
|G----------------------------2-2--------2-2------|----------------------->|
|D----------------------------0-0-4-0-0--0-0-4-0-0|----------------------->|
|A-----------------------------------4----------4-|----------------------->|
\D----------------------------0-0------0---0------|----------------------->/
Here’s the face of everything that breaks you down/Now you face the face of
everything that breaks you down
 
Verse 2: guitar 1
/e------------------------------------------------------------------------>\
|B------------------------------------------------------------------------>|
|G--7--9---10--12---11--9---10---9---7--9----10--12----------------------->|
|D------------------------------------------------------------------------>|
|A--5--7---8---10---9---7---8----7---5--7----8---10----------------------->|
|D-00-00-0-0--00--0-0-0-0--00---00--00-00--0-0--00------------------------>|
|                                                                          |
|Verse 2: acoustic                                                         |
|e-----------------------------------------------------------0----------0->|
|B-----------------------------------------------------------3--------3-3->|
|G--7--9---10--12---11--9---10---9---7--9----10--12--------2-2--------2-2->|
|D--------------------------------------------------3-0-0--0-0-3-0-0--0-0->|
|A--5--7---8---10---9---7---8----7---5--7----8---10----3----------3------->|
\D-00-00-0-0--00--0-0-0-0--00---00--00-00--0-0--00-------0---0------0---0->/
With an army of me/we invent our own enemies/Man verses machine/and the
dirty second hands, the dirty second hands

Verse 2: guitar 1
/e------------------------------------------------------------------------>\
|B------------------------------------------------------------------------>|
|G--7--9---10--12---11--9---10---9---7--9----10--12----------------------->|
|D------------------------------------------------------------------------>|
|A--5--7---8---10---9---7---8----7---5--7----8---10----------------------->|
|D-00-00-0-0--00--0-0-0-0--00---00--00-00--0-0--00------------------------>|
|                                                                          |
|Verse 2: acoustic                                                         |
|e-----------------------------------------------------------0----------0->|
|B-----------------------------------------------------------3--------3-3->|
|G--7--9---10--12---11--9---10---9---7--9----10--12--------2-2--------2-2->|
|D--------------------------------------------------3-0-0--0-0-3-0-0--0-0->|
|A--5--7---8---10---9---7---8----7---5--7----8---10----3----------3------->|
\D-00-00-0-0--00--0-0-0-0--00---00--00-00--0-0--00-------0---0------0---0->/
In the land of the free/and the home of the remedy/The old clock is a thief/
With dirty second hands, with dirty second hands

---REPEAT CHORUS (instead of bending with the electric, continue with the acoustic riff)

Bridge: continuing with the acoustic riff
Are you really as tough as you think? You blink and you’re over the brink/
You bleed but you’re blood runs pink/With dirty second hands, dirty second
hands/You’re not quite as tough as you thought/You bought the American
rot /The very seed that you thought you shot/With dirty second hands, dirty
second hands/You might be right/The fight might be right inside you/The
blind leading the lied to/Tonight maybe you bind you with dirty second hands

---REPEAT CHORUS TWICE

end with the acoustic riff

============================================================================

04. Awakening

guitars used: 2 electrics
tuning:       Standard

Intro: guitar 1 (r= 11th fret) (*= palm mute)
e----------------------------------------------------------------->
B----------------------------------------------------------------->
G-----------------------444-----------------------------444------->
D-------999-------222444xxx666464-------999-------222444xxx666464->
A-777999xxxrrr9r9-000000000000000-777999xxxrrr9r9-000000000000000->
E-000000000000000-----------------000000000000000----------------->
  *************** ***************

intro: guitar 1
/e----------------------------------------------------------------->\
|B----------------------------------------------------------------->|
|G-------444-------------444-------------444-------------444------->|
|D-222444---666464-222444---666464-222444---666464-222444---666464->|
|A----------------------------------------------------------------->|
|E----------------------------------------------------------------->|
|                                                                   |
|intro: guitar 2                                                    |
|e-000000000000000-000000000000000-000000000000000-000000000000000->|
|B-000000000000000-000000000000000-000000000000000-000000000000000->|
|G-999999999999999-666666666666666-999999999999999-666666666666666->|
|D-999999999999999-777777777777777-999999999999999-777777777777777->|
|A-777777777777777-777777777777777-777777777777777-777777777777777->|
\E-000000000000000-555555555555555-000000000000000-555555555555555->/

verse 1: guitar 1 (repeat)
e------------------------------------------------------------------>
B------------------------------------------------------------------>
G------------------------------------------------------------------>
D-22222222------------------------22222222------------------------->
A---------222222224444444400000000--------222222224444444400000000->
E------------------------------------------------------------------>
  ****************************************************************
Face down with the LA curbside endings/with the ones and zeros. Downtown
was the perfect place to hide. The first star that I saw last night was a
headlight/of a man-made sky, but/man-made never made our dreams collide,
Collide.

Chorus: guitar 2 (repeat twice)
e-000000000000000-000000000000000-000000000000000-000000000000000->
B-000000000000000-000000000000000-000000000000000-000000000000000->
G-999999999999999-888888888888888-666666666666666-666666666666666->
D-999999999999999-999999999999999-666666666666666-777777777777777->
A-777777777777777-999999999999999-444444444444444-777777777777777->
E-000000000000000-777777777777777-----------------555555555555555->
Here we are now with the falling sky and the rain, We're awakening/Here we
are now with our desperate youth and the pain, We're awakening/Maybe it's
called ambition, you've been talking in your sleep/about a

fill: guitar 2
e-000000000000000----------------->
B-000000000000000----------------->
G-666666666666666----------------->
D-666666666666666----------------->
A-444444444444444----------------->
E--------------------------------->
Dream, we're awakening

fill: guitar 1
/e--------------------------------->\
|B--------------------------------->|
|G-------444-------------444------->|
|D-222444---666464-222444---666464->|
|A--------------------------------->|
|E--------------------------------->|
|                                   |
|fill: guitar 2                     |
|e-000000000000000-000000000000000->|
|B-000000000000000-000000000000000->|
|G-999999999999999-666666666666666->|
|D-999999999999999-777777777777777->|
|A-777777777777777-777777777777777->|
\E-000000000000000-555555555555555->/

verse 1: guitar 2 (repeat)
e------------------------------------------------------------------>
B------------------------------------------------------------------>
G------------------------------------------------------------------>
D-22222222------------------------22222222------------------------->
A---------222222224444444400000000--------222222224444444400000000->
E------------------------------------------------------------------>
  ****************************************************************
Last week found me living for nothing but deadlines, With my dead beat sky
but, this town doesn't look the same tonight These dreams started singing
to me out of nowhere/And in all my life I don't know if I've ever felt so
alive, Alive

---REPEAT CHORUS

fill: guitar 2
e-0000000000000000~-------------0~----------0~------------------->
B-0000000000000000~-------------0~----------0~------------------->
G-6666666666666669~-------------7~----------6~------------------->
D-6666666666666669~-------------7~----------7~------------------->
A-4444444444444447~-------------5~----------7~------------------->
E----------------0~-------------------------5~------------------->
Dream, we're awakening

Bridge: guitar 1 (repeat over and over)
e-2-4-2-0->
B--------->
G--------->
D--------->
A--------->
E--------->
I want to wake up kicking and screaming/I want to wake up kicking and
screaming/I want a heart that I know is beating, It's beating, I'm bleeding/
I want to wake up kicking and screaming/I want to live like I know what I'm
leaving/I want a heart that I know is beating, It's beating… it’s beating…

I'm bleeding

---REPEAT CHORUS

outro: guitar 1
/e-----------------------------------------------------------------0~----->\
|B-----------------------------------------------------------------0~----->|
|G-------444-------------444-------------444-------------444-------1~----->|
|D-222444---666464-222444---666464-222444---666464-222444---666464-2~----->|
|A-----------------------------------------------------------------2~----->|
|E-----------------------------------------------------------------0~----->|
|                                                                          |
|outro: guitar 2                                                           |
|e-000000000000000-000000000000000-000000000000000-000000000000000-0~----->|
|B-000000000000000-000000000000000-000000000000000-000000000000000-0~----->|
|G-999999999999999-666666666666666-999999999999999-666666666666666-1~----->|
|D-999999999999999-777777777777777-999999999999999-777777777777777-2~----->|
|A-777777777777777-777777777777777-777777777777777-777777777777777-2~----->|
\E-000000000000000-555555555555555-000000000000000-555555555555555-0~----->/

============================================================================

05. Circles

guitars used: acoustic and electric
tuning:       Standard

Intro: acoustic (weird strumming pattern) (repeat)
e-------------------------------------------------------------->
B-----3----------3----------3-----------3----------3----------->
G-------------------------------------------------------------->
D--242-242-42-242-242-42-242-242-242-242-42-242-242-42-242-242->
A-2-------2--2-------2--2-------2---2------2---2------2---2---->
E-------------------------------------------------------------->

Intro: guitar 1 (WHILE ACOUSTIC REPEATS, RIGHT BEFORE VERSE STARTS)
e----------------------->
B----------------------->
G----------------------->
D--------5-4-2-0-------->
A--2/7~----------2~----->
E----------------------->

Verse 1: acoustic (repeat)
e------------------------------------------------>
B-----3----------3----------3-----------3-------->
G------------------------------------------------>
D--242-242-42-242-242-42-242-242-242-242-42-242-->
A-2-------2--2-------2--2-------2---2------2----->
E------------------------------------------------>
Another day/Another sunrise/Another factory call/Another night/Another
sunset/Another freefall

Pre-chorus: guitar 1                      (twelve)
/e-7~----------------------------------------12~------->\
|B------------------------------/5~-------------------->|
|G-----7--5~------------------------------------------->|
|D----------------------------------------------------->|
|A----------------------------------------------------->|
|E----------------------------------------------------->|
|                                                       |
|pre-chorus: acoustic                                   |
|e-3-33-33-5-55-55-2-22-22-2-22-22-3-33-55-2-22-22-2-2->|
|B-3-33-33-5-55-55-5-55-55-5-55-55-3-33-55-4-44-44-4-4->|
|G-5-55-55-7-77-77-4-44-44-4-44-44-5-55-77-2-22-22-2-2->|
|D-5-55-55-7-77-77-2-22-22-2-22-22-5-55-77-4-44-44-4-4->|
|A-3-33-33-5-55-55-----------------3-33-55-2-22-22-2-2->|
\E----------------------------------------------------->/
Am I alive? Am I on purpose? Within the weakness/within the weakness…

Chorus: guitar 1
e-------------------------3333---------------------------------3333-------->
B-------------------------3333---------------------------------3333-------->
G-------------------------44444444+++++------------------------44444444444->
D-----5554445555555444----55554444+++++----5554445555555444----55554444444->
A-2222------3333------555555552222+++++2222------3333------555555552222222->
E-0000----------------33333333----+++++0000----------------33333333-------->
Spinning out in circles/In circles, in circles/Spinning out in circles/In
circles, in circles

Fill: acoustic
e-000000000000000000000000000000000000000000000000000000000000000000000000->
B-000000000000000000000000000000000000000000000000000000000000000000000000->
G-000000000000000000000000000000000000000000000000000000000000000000000000->
D-222222222222222222222222222222222222222222222222222222222222222222222222->
A-222222222222222222222222222222222222222222222222222222222222222222222222->
E-000000000000000000000000000000000000000000000000000000000000000000000000->

Verse 2: acoustic (Em)
e-000000000000000000000000000000000000000000000000000000000000000000000000->
B-000000000000000000000000000000000000000000000000000000000000000000000000->
G-000000000000000000000000000000000000000000000000000000000000000000000000->
D-222222222222222222222222222222222222222222222222222222222222222222222222->
A-222222222222222222222222222222222222222222222222222222222222222222222222->
E-000000000000000000000000000000000000000000000000000000000000000000000000->
Another day/Another lifetime/Another engine stalls/Another line/Another
freeway/Another freefall

---REPEAT PRE-CHORUS
---REPEAT CHORUS

fill: guitar 1 (repeat)
e------------------------------------------------------>
B----------------------------------333----------------->
G---------------------444222----------444-------555444->
D--------555444--------------------------1-1-1-1------->
A--------------0-0-0-0------3-3-3-3-------------------->
E-0-0-0-0---------------------------------------------->

Bridge: acoustic (repeat)
e-0-0000-00-0-0000-00-3-3333-33-2-2222-22->
B-0-0000-00-0-0000-00-3-3333-33-4-4444-44->
G-1-1111-11-5-5555-55-4-4444-44-4-4444-44->
D-2-2222-22-5-5555-55-5-5555-55-4-4444-44->
A-2-2222-22-3-3333-33-5-5555-55-2-2222-22->
E-0-0000-00-----------3-3333-33----------->
I’ve lost all that I wanted to leave/I’ve lost all that I wanted to be/
Don’t believe that there’s nothing that’s true/Don’t believe in this modern
machine! The modern machine

bridge: guitar 1
e-------------------------------------------------------------------------->
B-------------------------------------------------------------------------->
G-555555556666666777777788888888~-----------------------444444444444444444->
D-555555557777777777777799999999~------------------------------------------>
A-333333334444444555555566666666~------------------------------------------>
E-------------------------------------------------------------------------->
In circles/spinning, spinning


e--------------------------------------33333333--------0~------------------>
B--------------------------------------33333333--------0~------------------>
G--------444444------------------------44444444----44441~------------------>
D-5555555444444----5554445555555444----55555555555544442~------------------>
A-55555552222222222------3333------555555553333555522222~------------------>
E-3333333------0000----------------33333333----3333----0~------------------>
In circles, in circles/spinning out in circles, in circles, in circles, in
circles, in circles

Fill: guitar 1 (repeat)
/e---------02320--0------0-------02320--0------0-------02320--0------0---->\
|B--------0-----4--0~-----0~----0-----4--0~-----0~----0-----4--0~-----0~-->|
|G------------------------------------------------------------------------>|
|D------------------------------------------------------------------------>|
|A------------------------------------------------------------------------>|
|E------------------------------------------------------------------------>|
|                                                                          |
|Fill: acoustic (repeat)                                                   |
|e-0000000000000000000000000000000000000000000000000000000000000000000000->|
|B-0000000000000000000000000000000000000000000000000000000000000000000000->|
|G-0000000000000000000000000000000000000000000000000000000000000000000000->|
|D-2222222222222222222222222222222222222222222222222222222222222222222222->|
|A-2222222222222222222222222222222222222222222222222222222222222222222222->|
\E-0000000000000000000000000000000000000000000000000000000000000000000000->/

============================================================================

06. Amateur Lovers

guitars used: 2 electrics
tuning:       Standard

Intro: guitar 1            (repeat)
/e-------|---------------+0-0000-000-000-+0-0000-000-000--->\
|B-------|---------------+0-0000-000-000-+0-0000-000-000--->|
|G-------|---------------+1-4647-764-224-+1-4647-764-224--->|
|D-------|------------------------------------------------->|
|A-------|------------------------------------------------->|
|E-------|------------------------------------------------->|
|                                                           |
|Intro: guitar 2           (repeat)                         |
|e-------|------------------------------------------------->|
|B-------|------------------------------------------------->|
|G-------|------------------------------------------------->|
|D------2|--2--0-2-----0-2--2--0-2-----0-2--2--0-2-----0-2->|
|A----02-|---------0--2------------0--2------------0--2---->|
\E-0~----|0---------------0---------------0---------------->/

verse 1: bass guitar
Everyone I know/needs love like drugs/Like a common cold/we could never
shrug

Verse 1: guitar 1
/e-000--0---0---0---0-0-0-0-0---0--0000-0-0-0---0---0-0-0-0-0---0---0--->\
|B-000--0---0---0---0---0---0---0--000--0---0---0---0---0---0---0---0--->|
|G-777--4---4---7---6---9---9---7--676--9---9---7---6---9---9---7---6--->|
|D---------------------------------------------------------------------->|
|A---------------------------------------------------------------------->|
|E---------------------------------------------------------------------->|
|                                                                        |
|verse 1: guitar 2                                                       |
|e---------------------------------------------------------------------->|
|B---------------------------------------------------------------------->|
|G---------------------------------------------------------------------->|
|D------2--0-2-----0-2--2--0-2-----0-2--2--0-2-----0-2--2--0-2-----0-2-->|
|A-------------0--2------------0--2------------0--2------------0--2----->|
\E----0---------------0---------------0---------------0----------------->/
My baby and me/we’re missing the same stuff/We’ve all got a disease/
deficiency of love

pre-chorus: guitar 1 (lyrics match up with guitar here)
e------------------------------------------------------------------------>
B---4--------------------4-----------------------4----------------------->
G-224------------------224--------------------+++4----------------------->
D-224------------------224--------------------+++4----------------------->
A-002------------------002--------------------+++2----------------------->
E------------------------------------------------------------------------>
   Every day we still try/every night we still cry/Driving home on the 805

Chorus a: guitar 1
e--00-00-00-00---0-0000-00--00-00-00-00---0-0000-00-->
B--00-00-00-00---2-2332-00--00-00-00-00---2-2332-00-->
G--99-88-66-44---2-2222-44--99-88-66-44---2-2222-44-->
D--99-99-66-44---2-2222-44--99-99-66-44---2-2222-44-->
A--77-66-44-22---0-0000-22--77-66-44-22---0-0000-22-->
E---------------------------------------------------->
We don’t know what we’re doing/We do it again/We’re just amateur lovers/
with amateur friends

interlude: guitar 1
e------------------------------------>
B---------77777++-+------------------>
G-6666666666666++-+6666666644444444-->
D-6666666644444++-+6666666644444444-->
A-44444444---------4444444422222222-->
E------------------------------------>
I can tell you what you’re thinking now/before you think it you can settle
down

Chorus b: guitar 1
/e-00-00-00-00--+0-0000-000-000-+0-0000-000-000->\
|B-00-00-00-00--+0-0000-000-000-+0-0000-000-000->|
|G-99-88-66-44--+1-4647-764-224-+1-4647-764-224->|
|D-99-99-66-44---------------------------------->|
|A-77-66-44-22---------------------------------->|
|E---------------------------------------------->|
|                                                |
|Chorus b: guitar 2                              |
|e---------------------------------------------->|
|B---------------------------------------------->|
|G---------------------------------------------->|
|D--------------2--0-2-----0-2--2--0-2-----0-2-->|
|A---------------------0--2------------0--2----->|
\E------------0---------------0----------------->/
We don’t know what we’re doing/Let’s do it again!

Verse 2: nothing/bass guitar
Try to play it down/but it never stuck/I tried to bail this town/I’m
getting no such luck

Verse 2: guitar 1
/e-+++--0---0---0---0-0-0-0-0---0--0000-0-0-0---0---0-0-0-0-0----------->\
|B-+++--0---0---0---0---0---0---0--000--0---0---0---0---0---0----------->|
|G-+++--4---4---7---6---9---9---7--676--9---9---7---6---9---9----------->|
|D--------------------------------------------------------------++++7--->|
|A--------------------------------------------------------------++++7--->|
|E--------------------------------------------------------------++++5--->|
|                                                                        |
|verse 2: guitar 2                                                       |
|e---------------------------------------------------------------------->|
|B---------------------------------------------------------------------->|
|G---------------------------------------------------------------------->|
|D------2--0-2-----0-2--2--0-2-----0-2--2--0-2-----0-2--2--0-2-----0-2-->|
|A-------------0--2------------0--2------------0--2------------0--2----->|
\E----0---------------0---------------0---------------0----------------->/
When nobody’s around/I keep my eyes on the clock/There ain’t a cure I’ve
found/in all my times around this block

pre-chorus: guitar 1 (lyrics match up with guitar here)
e------------------------------------------------------------------------->
B------------------------------------------------------------------------->
G--------------------------------------------668-------------------------->
D-9\-----------------779---------------------779-------------------------->
A-9\-----------------779---------------------779-------------------------->
E-7\-----------------557---------------------557-------------------------->
  Everyday we still try/Every night we still cry/We drive it home on the 405

---REPEAT CHORUS A
---REPEAT INTERLUDE
---REPEAT CHORUS B

solo: guitar 1    |these are tens|       |these are tens|
/e--2320-----------10---8-875--------------10-10101010--7~---->\< carry on
|B------31-310--787--10------8-10-7-7-75-8-10-10101010-------->|   to next
|G--------------------------------------7--------------------->|
|D------------------------------------------------------------>|
|A------------------------------------------------------------>|
|E------------------------------------------------------------>|
|                                                              |
|background: guitar 2                                          |
|e------------------------------------------------------------>|
|B------------------------------------------------------------>|
|G------------------------------------------------------------>|
|D------------------------------------------------------------>|
|A------------------------------------------------------------>|
\E------------------------------------------------------------>/

bridge chorus: bass and trumpets/strings
We don’t know what we’re doing/Let’s do it again/yeah, ya know, We’re just
amateur lovers/with amateur friends

Interlude b: guitar 1
e----------------------------------------------------->
B---------77777++-+--------77777++-+------------------>
G-6666666666666++-+6666666644444++-+6666666644444444-->
D-6666666644444++-+6666666644444++-+6666666644444444-->
A-44444444---------44444444---------4444444422222222-->
E----------------------------------------------------->
I can tell you what you’re thinking now/Before you think it you can settle
down/Our lovin’ isn’t gonna burn us out

---REPEAT CHORUS B

continue with guitar 2’s intro part, Jon sings random “p-p-p-p-professional”

(I’ve already tabbed throughout the song what happens next, you can figure
out what order they play it)

end on an E
e-0~------>
B-0~------>
G-1~------>
D-2~------>
A-2~------>
E-0~------>

(trumpet, voices, fade out)

============================================================================

07. Faust, Midas, and Myself

guitars used: undistorted electric, distorted electric
tuning:       Drop D

Intro: guitar 1
e-5~----2~----------5~----2~----------->
B-------------3~----------------3~----->
G-------------------------------------->
D-------------------------------------->
A-2~----0~----------2~----0~----------->
D-------------0~----------------0~----->

Verse 1: guitar 1
e-------------------------------------------------------------->
B-----------3-33-3-33-----------3-33-3-33-----------3-33-3-33-->
G-2-22------2-22-2-22-2-22------2-22-2-22-2-22------2-22-2-22-->
D-4-44-4-44-0-00-0-00-4-44-4-44-0-00-0-00-4-44-4-44-0-00-0-00-->
A-2-22-0-00-2-22-2-22-2-22-0-00-2-22-2-22-2-22-0-00-2-22-2-22-->
D-----------2-22-2-22-----------2-22-2-22-----------2-22-2-22-->
This one’s about a dream/I had last night/How an old man tracked me home/
and stepped inside/He put his foot inside the door/and gave a crooked smile

Verse 1: guitar 1
e-----------0-0-0-000--------------------->
B-----------0-0-0-000--------------------->
G-4-4-4-444/6-6-6-666-4-4-4-444-3-3-3-333->
D-5-5-5-555/7-7-7-777-5-5-5-555-4-4-4-444->
A-5-5-5-555/7-7-7-777-5-5-5-555-4-4-4-444->
D-5-5-5-555-0-0-0-000-5-5-5-555-4-4-4-444->
Something in his eyes/Something in his laugh/Something in his voice/That
made my skin crawl off

Verse 1: guitar 1
e-------------------------------------------------------------->
B-----------3-33-3-33-----------3-33-3-33-----------3-33-3-33-->
G-2-22------2-22-2-22-2-22------2-22-2-22-2-22------2-22-2-22-->
D-4-44-4-44-0-00-0-00-4-44-4-44-0-00-0-00-4-44-4-44-0-00-0-00-->
A-2-22-0-00-2-22-2-22-2-22-0-00-2-22-2-22-2-22-0-00-2-22-2-22-->
D-----------2-22-2-22-----------2-22-2-22-----------2-22-2-22-->
He said, “I’ve seen you here before/I know your name. You could have your
pick/of pretty things.

Verse 1: guitar 1
e-----------0-0-0-000--------------------->
B-----------0-0-0-000--------------------->
G-4-4-4-444/6-6-6-666-4-4-4-444-3-3-3-333->
D-5-5-5-555/7-7-7-777-5-5-5-555-4-4-4-444->
A-5-5-5-555/7-7-7-777-5-5-5-555-4-4-4-444->
D-5-5-5-555-0-0-0-000-5-5-5-555-4-4-4-444->
You could have it all/everything at once. Everything you’ve seen,everything
you’ll need, everything you’ve ever had in fantasies.”

chorus: guitar 1
e-5~----2~----------5~----2~----------->
B-------------3~----------------3~----->
G-------------------------------------->
D-------------------------------------->
A-2~----0~----------2~----0~----------->
D-------------0~----------------0~----->
“You’ve one life, you’ve one life. You’ve one life left to lead.”

Verse 2: guitar 1
e-------------------------------------------------------------->
B-----------3-33-3-33-----------3-33-3-33-----------3-33-3-33-->
G-2-22------2-22-2-22-2-22------2-22-2-22-2-22------2-22-2-22-->
D-4-44-4-44-0-00-0-00-4-44-4-44-0-00-0-00-4-44-4-44-0-00-0-00-->
A-2-22-0-00-2-22-2-22-2-22-0-00-2-22-2-22-2-22-0-00-2-22-2-22-->
D-----------2-22-2-22-----------2-22-2-22-----------2-22-2-22-->
I woke up from my dream/as a golden man/with a girl I’ve never seen/with
golden skin/I jumped up to my feet/she asked me what was wrong

Verse 2: guitar 1
e-----------0-0-0-000--------------------->
B-----------0-0-0-000--------------------->
G-4-4-4-444/6-6-6-666-4-4-4-444-3-3-3-333->
D-5-5-5-555/7-7-7-777-5-5-5-555-4-4-4-444->
A-5-5-5-555/7-7-7-777-5-5-5-555-4-4-4-444->
D-5-5-5-555-0-0-0-000-5-5-5-555-4-4-4-444->
I began to scream/I don’t think this is me/Is this just a dream/or really
happening?

---REPEAT CHORUS

bridge 1: guitar 2 (electric)
e------------------------------------------------------------->
B------------------------------------------------------------->
G------------------------------------------------------------->
D-55---5555-77---7777-99---9999-00---0000\55---55---77---7777->
A-55---5555-77---7777-99---9999-00---0000\55---55---77---7777->
D-55---5555-77---7777-99---9999-00---0000\55---55---77---7777->
What direction? What direction? I’m splitting up! I’m splitting up! This is
my personal disaffection What direction? What direction? What direction now?

Verse 3: guitar 1
e-------------------------------------------------------------->
B-----------3-33-3-33-----------3-33-3-33-----------3-33-3-33-->
G-2-22------2-22-2-22-2-22------2-22-2-22-2-22------2-22-2-22-->
D-4-44-4-44-0-00-0-00-4-44-4-44-0-00-0-00-4-44-4-44-0-00-0-00-->
A-2-22-0-00-2-22-2-22-2-22-0-00-2-22-2-22-2-22-0-00-2-22-2-22-->
D-----------2-22-2-22-----------2-22-2-22-----------2-22-2-22-->
I looked outside the glass/at golden shores/Golden ships and masts/with
golden cords/As my reflection passed/I hated what I saw

Verse 3: guitar 1
e-----------0-0-0-000--------------------->
B-----------0-0-0-000--------------------->
G-4-4-4-444/6-6-6-666-4-4-4-444-3-3-3-333->
D-5-5-5-555/7-7-7-777-5-5-5-555-4-4-4-444->
A-5-5-5-555/7-7-7-777-5-5-5-555-4-4-4-444->
D-5-5-5-555-0-0-0-000-5-5-5-555-4-4-4-444->
My golden eyes were dead/and a thought passed through my head: A heart that
is made of gold can’t really beat at all

Bridge 2: guitar 2 (*= palm mute)
e-------------------------------------------------------------------------->
B-------------------------------------------------------------------------->
G-4444444444444444444444444444444444444444444444442222222222222211111112~-->
D-5555555555555555555555555555555555555555555555554444444333333322222222~-->
A-5555555555555555555555555555555555555555555555554444444333333322222220~-->
D-555555555555555555555555555555555555555555555555444444433333332222222---->
  *********************************************************************
I wanted to wake up again I wanted to wake up again Without a touch of gold
without a touch of gold
 
Bridge 2: bass, drums, strings
What direction? What direction? What direction? What direction? What
direction? Death or action! Life begins at the intersection.

Bridge 2: guitar
e------------------->
B------------------->
G------------------->
D-5555555577777777-->
A-5555555577777777-->
D-5555555577777777-->
What direction? What direction? What direction now?

Verse 4: guitar 1
e-------------------------------------------------------------->
B-----------3-33-3-33-----------3-33-3-33-----------3~--------->
G-2-22------2-22-2-22-2-22------2-22-2-22-2-22------2~--------->
D-4-44-4-44-0-00-0-00-4-44-4-44-0-00-0-00-4-44-4-44-0~--------->
A-2-22-0-00-2-22-2-22-2-22-0-00-2-22-2-22-2-22-0-00-2~--------->
D-----------2-22-2-22-----------2-22-2-22-----------2~--------->
I woke up as before/but the gold was gone/My wife was at the door/with her
night robe on/My heart beat once or twice/and life flooded my veins

Verse 4: guitar 1
e-----------0-0-0-000--------------------->
B-----------0-0-0-000--------------------->
G-4-4-4-444/6-6-6-666-4-4-4-444-3-3-3-333->
D-5-5-5-555/7-7-7-777-5-5-5-555-4-4-4-444->
A-5-5-5-555/7-7-7-777-5-5-5-555-4-4-4-444->
D-5-5-5-555-0-0-0-000-5-5-5-555-4-4-4-444->
Everything had changed/My lungs had found their voice/And what was once
routine was now the perfect joy 
 
---REPEAT CHORUS

============================================================================

08. Head Over Heels (In This Life)

guitars used: 2 electrics
tuning:       Drop D

Intro: guitar 1
/e-5757575757575757575757575757575757575757575757575757575757575757575757->\
|B------------------------------------------------------------------------>|
|G------------------------------------------------------------------------>|
|D------------------------------------------------------------------------>|
|A------------------------------------------------------------------------>|
|D------------------------------------------------------------------------>|
|                                                                          |
|Intro: guitar 2                                                           |
|e------------------------------------------------------------------------>|
|B-------------------------------------7b7---------------------------7b7-->|
|G---------------2222---2222-------------------2222---2222---------------->|
|D------------------------------7777---4b4--------------------7777---4b4-->|
|A-----------0-0------00----5-5------55----0-0------00----5-5------55----->|
\D-----------0-0------00----5-5------55----0-0------00----5-5------55----->/

verse 1: guitar 1
/e-0-0-0-0-3-3-3-3-0-0-0-0-3-3-3-3-2~--0~------------------------------->\
|B-3-3-3-3-3-3-3-3-3-3-3-3-3-3-3-3-3~--2~------------------------------->|
|G-2-2-2-2-3-3-3-3-2-2-2-2-3-3-3-3-4~--2~--3~-----------777---------777->|
|D-0-0-0-0-5-5-5-5-0-0-0-0-5-5-5-5-4~--2~--5~-----777999------777999---->|
|A-0-0-0-0-5-5-5-5-0-0-0-0-5-5-5-5-2~--0~--5~--555---------555---------->|
|D-0-0-0-0-5-5-5-5-0-0-0-0-5-5-5-5---------5~--------------------------->|
|                                                                        |
|verse 1: guitar 2                                                       |
|e---------------------------------------------------------------------->|
|B---------------------------------------------------------------------->|
|G---------------------------------------------777777777777777777777777->|
|D---------------------------------------------777777777777777777777777->|
|A---------------------------------------------555555555555555555555555->|
\D---------------------------------------------000000000000000000000000->/
Head over here and take me/head over heels and aching/When I told you I was
yours/I was yours

Chorus: guitar 1
/e-------------------------------------------------------------->\
|B---------------------------7b7---------------------------7b7-->|
|G-----2222---2222-------------------2222---2222---------------->|
|D--------------------7777---4b4--------------------7777---4b4-->|
|A-0-0------00----5-5------55----0-0------00----5-5------55----->|
|D-0-0------00----5-5------55----0-0------00----5-5------55----->|
|                                                                |
|chorus: guitar 2                                                |
|e-000000000000000000000000000000000000000000000000000000000000->|
|B-333333333333333000000000000000333333333333333000000000000000->|
|G-222222222222222777777777777777222222222222222777777777777777->|
|D-000000000000000777777777777777000000000000000777777777777777->|
|A-000000000000000555555555555555000000000000000555555555555555->|
\D-000000000000000555555555555555000000000000000555555555555555->/
In this life, you’re the one place I call home/In this life, you’re the
feeling I belong

Chorus: guitars 1,2
e-0000000000000000000000000000000~-------------0~-------------------------->
B-3333333333333330000000000000003--------------0~-------------------------->
G-4444444444444447777777777777774~-------------7~-------------------------->
D-4444444444444447777777777777774~-------------7~-------------------------->
A-2222222222222225555555555555552~-------------5~-------------------------->
D----------------555555555555555---------------5~-------------------------->
In this life, you’re the flower and the thorn/You’re everything that’s fair
in love and war

verse 1: guitar 1
/e-0-0-0-0-3-3-3-3-0-0-0-0-3-3-3-3-2~--0~------------------------------->\
|B-3-3-3-3-3-3-3-3-3-3-3-3-3-3-3-3-3~--2~------------------------------->|
|G-2-2-2-2-3-3-3-3-2-2-2-2-3-3-3-3-4~--2~--3~-----------777---------777->|
|D-0-0-0-0-5-5-5-5-0-0-0-0-5-5-5-5-4~--2~--5~-----777999---555777999---->|
|A-0-0-0-0-5-5-5-5-0-0-0-0-5-5-5-5-2~--0~--5~--555---------------------->|
|D-0-0-0-0-5-5-5-5-0-0-0-0-5-5-5-5---------5~--------------------------->|
|                                                                        |
|verse 1: guitar 2                                                       |
|e---0~------3~------0~------3~----------------------------------------->|
|B---3~------3~------3~------3~----------------------------------------->|
|G---2~------3~------2~------3~----------------777777777777777777777777->|
|D---0~--------------0~------------------------777777777777777777777777->|
|A---------------------------------------------555555555555555555555555->|
\D---------------------------------------------000000000000000000000000->/
I’m coming down like a gunshot/in all these battles I’ve fought/You’re the
mark I’m aiming for/I was yours

Chorus 2: guitar 1
/e-------------------------------------------------------------->\
|B---------------------------7b7---------------------------7b7-->|
|G-----2222---2222-------------------2222---2222---------------->|
|D--------------------7777---4b4--------------------7777---4b4-->|
|A-0-0------00----5-5------55----0-0------00----5-5------55----->|
|D-0-0------00----5-5------55----0-0------00----5-5------55----->|
|                                                                |
|chorus 2: guitar 2                                              |
|e-000000000000000000000000000000000000000000000000000000000000->|
|B-333333333333333000000000000000333333333333333000000000000000->|
|G-222222222222222777777777777777222222222222222777777777777777->|
|D-000000000000000777777777777777000000000000000777777777777777->|
|A-000000000000000555555555555555000000000000000555555555555555->|
\D-000000000000000555555555555555000000000000000555555555555555->/
In this life, you’re the one place I call home/In this life, you’re the
feeling I belong

Chorus 2: guitar 1
/e-0000000000000000000000000000000~------------0~------------------------->\
|B-3333333333333330000000000000003-------------0~------------------------->|
|G-4444444444444447777777777777774~------------7~----2~----2~----4~----6~->|
|D-4444444444444447777777777777774~------------7~----5~----4~----5~----7~->|
|A-2222222222222225555555555555552~------------5~----2~----4~----5~----7~->|
|D----------------555555555555555--------------5~----2~----4~----5~----7~->|
|                                                                          |
|Chorus 2: guitar 2                                                        |
|e-0000000000000000000000000000000~------------0~------------------------->|
|B-3333333333333330000000000000003-------------0~------------------------->|
|G-4444444444444447777777777777774~------------7~------------------------->|
|D-4444444444444447777777777777774~------------7~------------------------->|
|A-2222222222222225555555555555552~------------5~------------------------->|
\D----------------555555555555555--------------5~------------------------->/
In this life, you’re the flower and the thorn/You’re everything that’s fair
in love and war/in love

Bridge: guitar 1
e--------------------------->
B--------------------------->
G-7~----9~---11\4~---------->
D-9~----11~-----5~---------->
A-9~----12~-----5~---------->
D-9~----11~-----5~---------->
And war/Head over

Bridge: guitar 2
e-------------------------------------------------------------------->
B-----55552222-------------------------55552222---------------------->
G-4444--------2222-----------------4444--------2222------------------>
D-4444----------------7777777--77774444----------------7777777--7777->
A-2222------------5555-------55----2222------------5555-------55----->
D-----------------5555-------55--------------------5555-------55----->
Heels/head over heels

Bridge: guitar 2                                        (“everything”)
e-------------------------------------------------------------3~----------->
B-------------------------------------------------------------3~----------->
G-------------------------------------------------------------5~----------->
D-0~----------------------------------------------------------5~----------->
A-0~----------------------------------------------------------3~----------->
D-0~----------------------------------------------------------------------->
In this life I’m stubborn to the core/In this life I’ve been burning after
more/We both know what these open arms are for/You’re everything that’s fair

Chorus 3: guitar 2
e------------------------------------------------------------>
B------------------------------------------------------------>
G-----2222---2222------------------2222---2222--------------->
D--------------------8888--8888-------------------8888--8888->
A-0-0------00----5-5-----55----0-0------00----5-5-----55----->
D-0-0------00----5-5-----55----0-0------00----5-5-----55----->
In this life, you’re my only one/In this life, you’re my only one/In this
life, you’re my only one/In this life, you’re my only one

---REPEAT CHORUS

end on: guitar 1  (fade out)
/e-5757575757575757575757575757575757575757575757575757575757575757575757->\
|B------------------------------------------------------------------------>|
|G------------------------------------------------------------------------>|
|D------------------------------------------------------------------------>|
|A------------------------------------------------------------------------>|
|D------------------------------------------------------------------------>|
|                                                                          |
|end on: guitar 2                                                          |
|e-2~--------------------------------------------------------------------->|
|B-3~--------------------------------------------------------------------->|
|G-2~--------------------------------------------------------------------->|
|D-0~--------------------------------------------------------------------->|
|A-0~--------------------------------------------------------------------->|
\D-0~--------------------------------------------------------------------->/

============================================================================

09. Yesterdays

guitars used: undistorted electric
tuning:       Standard

Intro:
e--------------------------------------------------------------------->
B-----------------7~---7\----00~-------------------7~---7\----00~----->
G-7~---7-6--4~-----------2-2-------7777-7-6--4~-----------2-2--------->
D--------------------------------------------------------------------->
A--------------------------------------------------------------------->
E--------------------------------------------------------------------->

Verse 1:
e-0~---------------------------------------2~------------->
B-0~------------3~--3-2-0~-----------------3~------------->
G-00000-2-4~-----------------0~-----2-4~---2~--2-2-44~---->
D-2~---------------------------------------0~------------->
A-2~------------------------------------------------------>
E-0~------------------------------------------------------>
Flowers cut and brought inside/Black cars in a single line/Your family in
suits and ties/And you’re free

Verse 1:
e-0~---------------------------------------2~--5\---------0~------->
B-0~------------3~--3-2-0~-----------------3~-------------0~------->
G-00000-2-4~-----------------0~-----2-4~---2~----2-44-4~--1--2-1~-->
D-2~---------------------------------------0~-------------2~------->
A-2~------------------------------------------------------2~------->
E-0~------------------------------------------------------0~------->
The ache I feel inside/is where the life has left your eyes/I’m alone for
our last goodbye/But you’re free

Chorus:
      (yesterday)           (gone)            (yesterday)             (on)
e-5-5~----------------5-5~----------------5-5~----------------5-5~--------->
B-5--5~----0~---0~----5--5~----0~---0~----5--5~----0~---0~----5--5~----0~-->
G-6~-------2~---1~----6~-------2~---1~----6~-------2~---1~----6~-------2~-->
D-4~-------2~---2~----4~-------2~---2~----4~-------2~---2~----4~-------2~-->
A----------0~---2~-------------0~---2~-------------0~---2~-------------0~-->
E---------------0~------------------0~------------------0~----------------->
           (yesterday)                             (yesterday)
I remember you like yesterday, yesterday/I still can’t believe you’re gone,
oh… I remember you like yesterday, yesterday/And until I’m with you, I’ll
carry on

---REPEAT INTRO

Verse 2:
e-0~---------------------------------------2~------------->
B-0~------------3~----2-0~-----------------3~------------->
G-0~----2-4~-----------------0~-----2-4~---2~--2-2-44~---->
D-2~---------------------------------------0~------------->
A-2~------------------------------------------------------>
E-0~------------------------------------------------------>
Adrift on your ocean floor/I feel weightless, numb, and sore/A part of you
in me is torn/And you’re free

Verse 2:
e-0~---------------------------------------2~--5\---------0~------->
B-0~------------3~----2-0~-----------------3~-------------0~------->
G-0~----2-4~-----------------0~-----2-4~---2~----2-44-4~--1--2-1~-->
D-2~---------------------------------------0~-------------2~------->
A-2~------------------------------------------------------2~------->
E-0~------------------------------------------------------0~------->
I woke from a dream last night/I dreamt that you were by my side/reminding
me I still had life/in me

---REPEAT CHORUS

Bridge:
e-0-0-00-0-0-00-0-0-000-00-0-0-00-0-0-00-0-0-00-00-0-0-00-0-0-00-0-0-00-00->
B-0-0-00-0-0-00-x-x-xxx-xx-0-0-00-0-0-00-x-x-xx-xx-0-0-00-0-0-00-x-x-xx-xx->
G-x-x-xx-9-9-99-7-7-777-77-x-x-xx-9-9-99-7-7-77-77-x-x-xx-9-9-99-7-7-77-77->
D-7-7-77-9-9-99-7-7-777-77-7-7-77-9-9-99-7-7-77-77-7-7-77-9-9-99-7-7-77-77->
A-7-7-77-7-7-77-5-5-555-55-7-7-77-7-7-77-5-5-55-55-7-7-77-7-7-77-5-5-55-55->
E-5-5-55-------------------5-5-55------------------5-5-55------------------>
                            I’ll carry on

Chorus 2:
      (yesterday)           (gone)            (yesterday)            (long)
e-2~------------------5-5~----------------5-5~----------------5-5~--------->
B-2~-------0~---0~----5--5~----0~---0~----5--5~----0~---0~----5--5~----0~-->
G-2~-------2~---1~----6~-------2~---1~----6~-------2~---1~----6~-------2~-->
D-4~-------2~---2~----4~-------2~---2~----4~-------2~---2~----4~-------2~-->
A-4~-------0~---2~-------------0~---2~-------------0~---2~-------------0~-->
E-2~------------0~------------------0~------------------0~----------------->
           (yesterday)                             (yesterday)
Every lament is a love song/Yesterday, yesterday/I still can’t believe
you’re gone/Every lament is a love song/Yesterday, yesterday/I still can’t
believe you’re gone/So long my friend, so long

============================================================================

10. Burn Out Bright

guitars used: 2 electrics
tuning:       Standard

Intro: guitar 1 (I don’t exactly know how he plays this, because it sounds
                 like he uses a pick, but here are the right notes)(if you
                 want to, divide the two parts between two different
                 guitars, it might sound better)
e-2-2-2222-2-0-0--00000-0-0000-0------2-2-2222-2-0-0--00000-0-0000-0------->
B-------------------------------3-3333------------------------------3-3333->
G-------------------------------2-2222------------------------------2-2222->
D-------------------------------0-0000------------------------------0-0000->
A-2-2-2222-2----------0-0-0000-0------2-2-2222-2----------0-0-0000-0------->
E------------0-0--0000---------------------------0-0--0000----------------->

Verse 1: guitar 1 (*= palm mute)
/e-2~--------333222-------00-------3322----00----------0022------00--->\
|B-3~--------------0000033--3333333----33----33----00330000002233----->|
|G-2~------------------------------------22----2222--44--------------->|
|D-0~----------------------------------------------------------------->|
|A-------------------------------------------------------------------->|
|E-------------------------------------------------------------------->|
|            **********************************************            |
|verse 1: guitar 2 (*= palm mute, += harmonics)                        |
|e-------------------------------------------------------------------->|
|B-------------------------------------------------------------------->|
|G---------------------------------------------------------00000000++->|
|D-00000000--------22222222----------------0000000022222222--------++->|
|A---------00000000--------22222222--------------------------------++->|
\E---------------------------------33333333--------------------------->/
   ********************************************************
Does it have to start with a broken heart/Broken dreams and bleeding parts/
We were young and world was clear/but young ambition disappears/I swore it
would never come to this/The average, the obvious/I’m still discontented
down here/I’m still discontented

chorus: guitar 1
/e---------------------------------------------------------->\
|B-55533353333222325553335300227353555333533332223255533353->|
|G---------------------------------------------------------->|
|D---------------------------------------------------------->|
|A---------------------------------------------------------->|
|E---------------------------------------------------------->|
|                                                            |
|chorus: guitar 2 (+= harmonics)                             |
|e---------------------------------------------------------->|
|B---------------------------------------------------------->|
|G-77777777--------99999999--------77777777----------------->|
|D-777777777777777799999999999999++777777777777777799995555->|
|A-555555557777777777777777999999++555555557777777799995555->|
\E---------55555555--------777777++--------5555555577773333->/
If we’ve only got one try/If we’ve only got one life/If time was never on
our side/then before I die/I want to burn out bright

---REPEAT INTRO

Verse 1: guitar 1 (*= palm mute)
/e---------------------------------3322----00----------0022------00--->\
|B-7\----------------------------------33----33----0033----002233----->|
|G-7\------------------------------------22----2222------------------->|
|D-7\--------------22222222------------------------------------------->|
|A-5\------00000000--------22222222----------------------------------->|
|E-------------------------------------------------------------------->|
|          ************************************************            |
|verse 1: guitar 2 (*= palm mute, += harmonics)                        |
|e-------------------------------------------------------------------->|
|B-------------------------------------------------------------------->|
|G---------------------------------------------------------00000000++->|
|D-----------------22222222----------------0000000022222222--------++->|
|A---------00000000--------22222222--------------------------------++->|
\E---------------------------------33333333--------------------------->/
           ************************************************
A spark ignites/in time and space/Limping through this human race/You bite
and claw your way back home/but you’re running the wrong way/The future is
a question mark/of kerosene and electric sparks/There’s still fire in you
yet/Yeah there’s still fire in you!

---REPEAT CHORUS

fill: guitar 1
e-2-2-2222-3-0-0-0000-0-2-2-5555-3-3-3322-0-0-0022\->
B--------------------------------------------------->
G--------------------------------------------------->
D--------------------------------------------------->
A--------------------------------------------------->
E--------------------------------------------------->

bridge: guitar 2
e-------------------------------------------00000000->
B-------------------------------------------00000000->
G-------------------------------------------11111111->
D-99999999\555555552222222299999999\555555++22222222->
A-99999999\555555552222222299999999\555555++22222222->
E-77777777\333333330000000077777777\333333++00000000->
I keep cleaning up the mess I’ve made/I won’t run away/I can’t sleep in the
bed I’ve made

Chorus 2: guitar 1 (trem.12= tremolo pick 12th fret)
/e-trem.12-------------------------------------------------->\
|B---------555444547775557522449575777555755554445477755575->|
|G---------------------------------------------------------->|
|D---------------------------------------------------------->|
|A---------------------------------------------------------->|
|E---------------------------------------------------------->|
|                                                            |
|chorus 2: guitar 2 (+= harmonics)                           |
|e---------------------------------------------------------->|
|B---------------------------------------------------------->|
|G---------44-44-44--------66-66+++99-99-99--------6666----->|
|D---------44-44-4444-44-4466-66+++99-99-9999-99-9966667777->|
|A---------22-22-2244-44-4444-44+++77-77-7799-99-9944447777->|
\E-----------------22-22-22----------------77-77-77----5555->/
If we’ve only got one life/If we’ve only got one life/If time was never on
our side/then before I die/I want to burn out

Chorus 2: guitar 1 (trem.12= tremolo pick 12th fret)
/e---------------------------------------------------------->\
|B-77755575555444547775557522449575777555755554445477755575->|
|G---------------------------------------------------------->|
|D---------------------------------------------------------->|
|A---------------------------------------------------------->|
|E---------------------------------------------------------->|
|                                                            |
|chorus 2: guitar 2 (+= harmonics)                           |
|e---------------------------------------------------------->|
|B---------------------------------------------------------->|
|G-99999999----------------66666+++99999999--------6666----->|
|D-99999999999999994444444466666+++999999999999999966667777->|
|A-77777777999999994444444444444+++777777779999999944447777->|
\E---------7777777722222222----------------77777777----5555->/
before I die I want to burn out/before I die I want to burn out/before I
die  I want to burn out bright/If time was never on our side/then before I
die/I want to burn out bright

outro: guitar 1
e-4-4-4444-4-2-2--22222-2-2222-2------4-4-4444-4-2-2--22222-2-2222-0------->
B-------------------------------5-5555------------------------------5~----->
G-------------------------------4-4444------------------------------4~----->
D-------------------------------2-2222------------------------------2~----->
A-4-4-4444-4----------2-2-2222-2------4-4-4444-4----------2-2-2222-22~----->
E------------2-2--2222---------------------------2-2--2222----------0~----->

============================================================================

11. 4:12

guitars used: 2 electrics
tuning:       Standard

Verse 1: guitar 2
e-------------------------------------------------------------------------->
B-------------------------------------------------------------------------->
G-------------------------------------------------------------------------->
D-3-33--------------3-33--------------3-33--------------3-33--------------->
A-----3-33--------------3-33--------------3-33--------------3-33----------->
E---------333-333-33--------333-333-33--------333-333-33--------333-333-33->
You’ve been having trouble staying asleep/You’ve been waking up at 4:12/You
roll the voices over in your head/then you try to put them neatly on the
shelf

Verse 1: guitar 1 (*= palm muting)
/e-1131--3---3----3-1131--3---3----3-1131--3---3----3-1131--3---3----3-->\
|B-----55-533-3-33-3----55-533-3-33-3----55-533-3-33-3----55-533-3-33-3->|
|G-------------0----------------0----------------0----------------0----->|
|D---------------------------------------------------------------------->|
|A---------------------------------------------------------------------->|
|E---------------------------------------------------------------------->|
|  ***************************************************************       |
|Verse 1: guitar 2                                                       |
|e---------------------------------------------------------------------->|
|B---------------------------------------------------------------------->|
|G---------------------------------------------------------------------->|
|D-3-33-------------3-33-------------3-33-------------3-33-------------->|
|A-----3-33-------------3-33-------------3-33-------------3-33---------->|
\E---------333-33-33--------333-33-33--------333-33-33--------333333333->/
You watch the sun rise/You saw the darkness had no choice before the dawn/
With your own eyes/And then you broke out laughing from a yawn/You said,

Chorus: guitar 1
/e-33333333333333333333333333333333----22220000----0-0-0~-------->\
|B-333003353330033533300335333003350000--------00000-0-0~-------->|
|G-00000000000000000000000000000000------------------------------>|
|D--------------------------------------------------------------->|
|A--------------------------------------------------------------->|
|E--------------------------------------------------------------->|
|                                                                 |
|Chorus: guitar 2                                                 |
|e-------------------------------------------------0~------------>|
|B-------------------------------------------------0~------------>|
|G-7777----7777----7777----7777----999977775555----5~------------>|
|D-7777555577775555777755557777555599997777555555557~------------>|
|A-5555555555555555555555555555555577775555333355557~------------>|
\E-----3333----3333----3333----3333------------33335~------------>/
“I’m so sorry I’ve been so down. I started doubting things could ever turn
around. And I began to believe that all we are is material. It’s
nonsensical.”

Fill: guitar 2
e--------------------->
B--------------------->
G--------------------->
D-3-33---------------->
A-----3-33------------>
E---------333-333-333->

Verse 2: guitar 2
e-------------------------------------------------------------------------->
B-------------------------------------------------------------------------->
G-------------------------------------------------------------------------->
D-------------------------------------------------------------------------->
A-------------------------------------------------------------------------->
E---------333-333-33--------333-333-33--------333-333-33--------333-333-33->
So you walk outside and everything’s new/You’re looking at the world with
new eyes. As if you’d never seen a sky before that is blue/As if you’ve
never seen the sky in your whole life

Verse 2: guitar 1 (*= palm muting)
/e-1131--3---3----3-1131--3---3----3-1131--3---3----3-1131--3---3----3-->\
|B-----55-533-3-33-3----55-533-3-33-3----55-533-3-33-3----55-533-3-33-3->|
|G-------------0----------------0----------------0----------------0----->|
|D---------------------------------------------------------------------->|
|A---------------------------------------------------------------------->|
|E---------------------------------------------------------------------->|
|  ***************************************************************       |
|Verse 2: guitar 2                                                       |
|e---------------------------------------------------------------------->|
|B---------------------------------------------------------------------->|
|G---------------------------------------------------------------------->|
|D-3-33-------------3-33-------------3-33-------------3-33-------------->|
|A-----3-33-------------3-33-------------3-33-------------3-33---------->|
\E---------333-33-33--------333-33-33--------333-33-33--------333333333->/
And then the phone rings/as it turns out you are already late/and now
you’re wondering/was peace just a temporary state?

Chorus 2: guitar 1
/e-33333333333333333333333333333333----22220000----0-0-0~-------->\
|B-333003353330033533300335333003350000--------00000-0-0~-------->|
|G-00000000000000000000000000000000------------------------------>|
|D--------------------------------------------------------------->|
|A--------------------------------------------------------------->|
|E--------------------------------------------------------------->|
|                                                                 |
|Chorus 2: guitar 2                                               |
|e-------------------------------------------------0~------------>|
|B-------------------------------------------------0~------------>|
|G-7777----7777----7777----7777----999977775555----5~------------>|
|D-7777555577775555777755557777555599997777555555557~------------>|
|A-5555555555555555555555555555555577775555333355557~------------>|
\E-----3333----3333----3333----3333------------33335~------------>/
You’re waiting tables and parking cars/You’ve been selling cell phones at
the shopping mall/and you began to believe that all you are is material/
It’s nonsensical

Bridge: keyboard
Yeah, oh…

Fill 2: guitar 2
e--------------------------------------->
B--------------------------------------->
G--------------------------------------->
D-3-33--------------3-33---------------->
A-----3-33--------------3-33------------>
E---------333-333-33--------333-333-333->

Chorus 3: guitar 1
/e-333333333333333355555555555555555~--4~--2~--0~--2~--4~--2~--0~--2~-->\
|B-3330033533300335555--557555--5577~--5~--3~--2~--2~--5~--3~---2~-2~-->|
|G-0000000000000000---66------66--6------------2~---------------------->|
|D-----------------7777777777777777------------------------------------>|
|A--------------------------------------------------------------------->|
|E--------------------------------------------------------------------->|
|                                                                       |
|Chorus 3: guitar 2                                                     |
|e--------------------------------------------------------------------->|
|B---------------------------------10~-9~--7~----------10~-7~---------->|
|G-7777----7777----9999----9999----11~-9~--7~--6~--7~--11~-7~--6~--7~-->|
|D-7777555577775555999977779999777711~-9~--7~--7~--9~--11~-7~--7~--9~-->|
|A-555555555555555577777777777777779~--7~--5~--7~--9~--9~--5~--7~--9~-->|
\E-----3333----3333----5555----5555------------5~--7~----------5~--7~-->/
“I’m so sorry I’ve been so down. I started doubting things could ever turn
around. And I still can’t believe that all we are/and that all of are
dreams are nothing more than material

bridge 2: guitar 1
e------------------------------------------------33333333333333333333---33->
B-3---5---6---8---6~--5~--3~------6~--5~--3~------------------------------->
G-2---4---5---7---5~--5~--4~------5~--5~--4~-------------------------000--->
D-------------------------------------------------------------------------->
A-------------------------------------------------------------------------->
E-------------------------------------------------------------------------->
Souls aren’t built of stone, Sticks and bones oh…

Outro: guitar 1
/e-55553333333333333333555533333333333333333555533333333333--------------->\
|B------------------------------------------------------------------------>|
|G------------------------------------------------------------------------>|
|D------------------------------------------------------------------------>|
|A------------------------------------------------------------------------>|
|E------------------------------------------------------------------------>|
|                                                                          |
|Outro: guitar 2                                                           |
|e--1-1-1-1-1-1-1-1-1-1-1-1-1-1-1-1-1-1-1-1-1-1-1-1-1-1-1-1-1-1-1-1-1-1-1->|
|B--3-3-3-3-3-3-3-3-3-3-3-3-3-3-3-3-3-3-3-3-3-3-3-3-3-3-3-3-3-3-3-3-3-3-3->|
|G------------------------------------------------------------------------>|
|D------------------------------------------------------------------------>|
|A------------------------------------------------------------------------>|
\E------------------------------------------------------------------------>/
Souls aren’t built of stone, Sticks and bones/and souls aren’t built of
stone

============================================================================

12. Let Your Love be Strong

guitars used: acoustic, nondistorted electric
tuning:       Drop D

Intro: acoustic (p= pull-off)
e-------------------------------------------------------------------------->
B-------------------------------------------------------------------------->
G-------------------------------------------------------------------------->
D----4---4---4--5420--7---8---8---8---9---11--11--110--12--14---14--14/16-->
A---0--0---0---0----0---0---7---7--70---0---9---9----0---0---12---12-----0->
D-0------------------------------------------------------------------------>
                 ppp                                   /\that’s ELEVEN-ZERO
intro:
e-------------------------------------------------------------------------->
B-------------------------------------------------------------------------->
G-------------------------------------------------------------------------->
D----4---4---4--5420--7---8---8---8---9---11--11--110--12-14--14--14--14--->
A---0--0---0---0----0---0---7---7--70---0---9---9----0---0--12--12--12--12->
D-0------------------------------------------------------------------------>

Verse 1: (repeat)
e-------------------------------------------------------------------------->
B-------------------------------------------------------------------------->
G-------------------------------------------------------------------------->
D----4---4---4-------7---7---7---------12--------12--------11--------9----->
A---0--0---0---0----4--4---4---4-----9---9-----8---8-----7---7-----5---5--->
D-0--------------0/4-------------4/9-------9\8-------8\7-------7\5-------5->
In this world of news, I've found nothing new/I've found nothing pure/Maybe
I'm just idealistic to assume that truth/Could be fact and form/That love
could be a verb/Maybe I'm just a little misinformed

Fill: (p= pull-off)
e---------------------------------------->
B---------------------------------------->
G---------------------------------------->
D----4---4---4--5420-----4---4---4---4--->
A---0--0---0---0----0---0--0---0---0---0->
D-0-------------------0------------------>
                 ppp            rit...
Verse 2: (repeat)
e----0---0---0-------0---0---0---------0---------0---------0---------0----->
B----0---0---0-------0---0---0---------0---------0---------0---------0----->
G-------------------------------------------------------------------------->
D----4---4---4-------7---7---7---------12--------12--------11--------9----->
A---0--0---0---0----4--4---4---4-----9---9-----8---8-----7---7-----5---5--->
D-0--------------9/4-------------4/9-------9\8-------8\7-------7\5-------5->
As the dead moon rises, and the freeways sigh/Let the trains watch over the
tides and the mist/Spinning circles in our skies tonight/Let the trucks
roll in from Los Angeles/Maybe our stars are unanimously tired

Fill 2:
e----0---0---0---------->
B----0---0---0---------->
G----------------------->
D----4---4---4--5-0-4--->
A---0--0---0---0------0->
D-0--------------------->

Chorus: guitar 2: (electric, no distortion) (listen to song for rhythm)
e-----14----------14---------14-12-------14-----17--14-13~----------------->
B----15---15~----15---------15---15~----15---------15--11~----151312~------>
G-1416---14-----14-------1416----------14---------16-------1414---12~--11~->
D-------17-----16---16~---------------17---17~-------------15-----12~--12~->
A----------------------------------------------------------------------12~->
D-------------------------------------------------------------------------->
Let your love be strong, and I don't care what goes down/Let your love be
strong enough to weather through the thunder cloud/Fury and thunder clap
like stealing the fire from your eyes

Chorus con’t: acoustic
e---3~----5~----7---7---7---->
B--3-----5-----7--7---7---7-->
G-0-----7-----9-------------->
D---------------------------->
A---------------------------->
D---------------------------->
All of my world hanging on your love

Fill 3: guitar 2
e-2~----------------------------------------------------------------------->
B-3~----------------------------------------------------------------------->
G-2~----------------------------------------------------------------------->
D-0~------------------7~--8~----------9~--11~---------12~-14~-------------->
A-0~----------------------------------------------------------------------->
D-0~----------------------------------------------------------------------->

Fill: 3: acoustic
e-------------------------------------------------------------------------->
B-------------------------------------------------------------------------->
G-------------------------------------------------------------------------->
D----4---4---4--5420--7---8---8---8---9---11--11--110-12--14--14--14--14--->
A---0--0---0---0----0---0---7---7--70---0---9---9----0---0--12--12--12--12->
D-0------------------------------------------------------------------------>

Verse 3: (violins, bass, drums)(you can play this like verses 1 or 2)
Let the wars begin, let my strength wear thin/Let my fingers crack, let my
world fall apart/Train the monkeys on my back to fight/Let it start
tonight/When my world explodes, when my stars touch the ground/Falling down
like broken satellites

Chorus 2: guitar 2 (listen to song for rhythm)
e-----------------14---------14-12-------14-----17--14-13~----------------->
B---------15~----15---------15---15~----15---------15--11~----151312~------>
G-14~-----------14-------1416----------14---------16-------1414---12~--11~->
D--------------16---16~---------------17---17~-------------15-----12~--12~->
A----------------------------------------------------------------------12~->
D-------------------------------------------------------------------------->
Let your love be strong, and I don't care what goes down/Let your love be
strong enough to weather through the thunder cloud/Fury and thunder clap
like stealing the fire from your skies

Chorus 2 con’t: acoustic
e---3~----5~----7---7---7-----3~----5~----7---7---7---->
B--3-----5-----7--7---7---7--3-----5-----7--7---7---7-->
G-0-----7-----9-------------0-----7-----9-------------->
D------------------------------------------------------>
A------------------------------------------------------>
D------------------------------------------------------>
All of my world hanging on your love/All of my world resting on your love

Outro: (rit... in music terms means “retardando” which is to slow the tempo)
e-------------------------------------------------------------------------->
B-------------------------------------------------------------------------->
G-------------------------------------------------------------------------->
D----4---4---4--5420--7---8---8---8---9---11--11--110-12--14--14--14--14--->
A---0--0---0---0----0---0---7---7--70---0---9---9----0---0--12--12--12--12->
D-0------------------------------------------------------------------------>
                                                          rit...
outro:
e------------------------------>
B-----------3~----------------->
G-----------2~----------------->
D-14/16-----0~----------------->
A-------0-0-0~----------------->
D-----------0~----------------->

============================================================================

BONUS: Revenge

guitars used: acoustic
tuning:       Standard

Intro: acoustic
e------------3-333----33------------------3-333----33-------->
B------------3-333----33------------------3-333----33-------->
G--0---0-----0-000--------------0---0-----0-000-------------->
D--0h2-0h2---2-222--------------0h2-0h2---2-222-------------->
A-3--------0--------------0-/5-3--------0--------------0-/5-->
E------------------0----3-----------------------0----3------->

Verse 1:
e------------------------------------------------------------>
B------------------------------------------------------------>
G--0---0--------0------0-----0--0---0--------0-----0--------->
D--0h2-0h2--------------0-------0h2-0h2-------------0-------->
A-3--------0-------------------3--------0--------------0-/5-->
E------------------0-----3----------------------0----3------->
I’m the failure, I’m everyone’s fool/and I’m losing my cool at the ends

Verse 1:
e----------------------------------------------------3~----3->
B----------------------------------------------------3~----3->
G--0---0--------0------0--------0---0--------0-------0~------>
D--0h2-0h2--------------0-------0h2-0h2--------------0~------>
A-3--------0---------------0-2-3--------0------------2~------>
E------------------0-----3----------------------0----3~------>
I’m the loser/my number’s come up/I’ve been hung up with thoughts of
revenge, revenge, revenge

Chorus:
e------------3-333----33------------------3-333----33-------->
B------------3-333----33------------------3-333----33-------->
G--0---0-----0-000--------------0---0-----0-000-------------->
D--0h2-0h2---2-222--------------0h2-0h2---2-222-------------->
A-3--------0--------------0-2-3--------0--------------------->
E------------------0----3-----------------------0----3~------>
Whoa-oh…  Whoa-oh…

Verse 2:
e------------------------------------------------------------>
B------------------------------------------------------------>
G--0---0--------0------0--------0---0--------0-----0--------->
D--0h2-0h2--------------0-------0h2-0h2-------------0-------->
A-3--------0---------------0-2-3--------0-----------------2-->
E------------------0-----3----------------------0----3------->
I watched you from my terminal view/as you struggled to rise to your end

Verse 2:
e----------------------------------------------------3~----3->
B----------------------------------------------------3~----3->
G--0---0--------0------0--------0---0--------0-------0~------>
D--0h2-0h2--------------0-------0h2-0h2--------------0~------>
A-3--------0-------------------3--------0------------2~------>
E------------------0-----3----------------------0----3~------>
I laughed hard at the insults we threw/as the weight of the world found
revenge, revenge, revenge

Chorus 2:
e--3---3-----3-333----33--3-33--3---3-----3-333----33--3-33-->
B--3---3-----3-333----33--3-33--3---3-----3-333----33--3-33-->
G--0---0-----0-000----00--0-00--0---0-----0-000----00--0-00-->
D--0h2-0h2---2-222----22--2-22--0h2-0h2---2-222----22--2-22-->
A-3--------0------------------3--------0--------------------->
E------------------0----3-----------------------0----3------->
Whoa-oh… have hatred and gravity won?

Chorus 2:
e--3---3-----3-333----00--3-33--3---3-----0-000----00-3~----->
B--3---3-----3-333----33--3-33--3---3-----3-333----33-3~----->
G--0---0-----0-000----00--0-00--0---0-----0-000----00-0~----->
D--0h2-0h2---2-222----22--2-22--0h2-0h2---2-222----22-0~----->
A-3--------0------------------3--------0--------------2~----->
E------------------0----3-----------------------0-----3~----->
Whoa-oh… whoa-oh

Bridge: (this is a keyboard part; I’ll give you my guitar version)
        *use thumb on the low E string
  Am   G    C    Gm   Am   Gm *Fadd9 Am   G    C    Gm   Am   Gm *Fadd9
e-----------------------------------------------------------------------00->
B-1~---0~---1~---3~---1~---3~---1~---1~---0~---1~---3~---1~---3~---1-11-11->
G-2~---0~---0~---3~---2~---3~---0~---2~---0~---0~---3~---2~---3~---0-00-00->
D-2~---0~---2~---5~---2~---5~---3~---2~---0~---2~---5~---2~---5~---3-33-33->
A-0~---2~---3~---5~---0~---5~---3~---0~---2~---3~---5~---0~---5~---3-33-33->
E-------------------------------1~---------------------------------1-11-11->
The world hung upside down/I drew first blood/I drew first blood/My hate
for a crown/I drew first blood/I drew first blood

Verse 3:
e-3~--------------------3-333----33-----------------3-333----33------->
B-3~--------------------3-333----33-----------------3-333----33------->
G-0~----------0---0-----0-000-------------0---0-----0-000------------->
D-0~----------0h2-0h2---2-222-------------0h2-0h2---2-222------------->
A-2~----0-/5-3--------0--------------0-2-3--------0--------------0-2-->
E-3~--3-----------------------0----3----------------------0----3------>
Revenge/I watched heaven die in today/and I’m gonna die here tonight

Verse 3:
e---------------------------33-----------------------3~----3->
B---------------------------33-----------------------3~----3->
G--0---0--------0------0--------0---0--------0-------0~------>
D--0h2-0h2--------------0-------0h2-0h2--------------0~------>
A-3--------0-------------------3--------0------------2~------>
E------------------0-----3----------------------0----3~------>
I’m a villain, I deserve to be dead/I’ve been hung up for wrecking my life/
Revenge, revenge

---REPEAT CHORUS

Bridge 2:
e-1-1-11-1-11-3-3-33-3----0-00-3-333-1-1-11-1-11-0-1-1-11-1-11-3-3-33-3-33->
B-1-1-11-1-11-3-3-33-3----1-11-3-333-1-1-11-1-11-0-1-1-11-1-11-3-3-33-3-33->
G-0-0-00-0-00-0-0-00-0----2-22-0-000-0-0-00-0-00-0-0-0-00-0-00-0-0-00-0-00->
D-3-3-33-3-33-0-0-00-0----2-22-0-000-3-3-33-3-33-0-3-3-33-3-33-0-0-00-0-00->
A-3-3-33-3-33-2-2-22-20-3-0-00-2-222-3-3-33-3-33-0-3-3-33-3-33-2-2-22-2-22->
E-1-1-11-1-11-3-3-33-3---------3-333-1-1-11-1-11---1-1-11-1-11-3-3-33-3-33->


Bridge 2:
e-0-00-000-00-0-0-0-1-1-1-1-1-11-1-1-3-0-0-00->
B-0-00-000-00-1-1-1-3-3-3-1-1-11-1-1-3-0-0-00->
G-1-11-111-11-2-2-2-3-3-3-2-2-22-2-2-0-0-0-00->
D-0-00-000-00-2-2-2-3-3-3-3-3-33-3-3-0-0-0-00->
A-2-22-222-22-0-0-0-1-1-1-3-3-33-3-3-2-------->
E-0-00-000-00-------------1-1-11-1-1-3-------->
So I stopped for a moment/to look at the sun/dying that day/When the irony
hit me/that this was revenge/The love had defended and stolen our pain away

Bridge: (this is a keyboard part; I’ll give you my guitar version)
        *use thumb on the low E string
  Am   G    C    Gm   Am   Gm *Fadd9 Am   G    C    Gm   Am   Gm *Fadd9
e-----------------------------------------------------------------------00->
B-1~---0~---1~---3~---1~---3~---1~---1~---0~---1~---3~---1~---3~---1-11-11->
G-2~---0~---0~---3~---2~---3~---0~---2~---0~---0~---3~---2~---3~---0-00-00->
D-2~---0~---2~---5~---2~---5~---3~---2~---0~---2~---5~---2~---5~---3-33-33->
A-0~---2~---3~---5~---0~---5~---3~---0~---2~---3~---5~---0~---5~---3-33-33->
E-------------------------------1~---------------------------------1-11-11->
We consumed heaven’s Son/I drew first blood/I drew first blood/But my hate
was undone/I drew first blood/I drew first blood

Verse 4:
e-3~--------------------3-333----33-----------------3-333----33------->
B-3~--------------------3-333----33-----------------3-333----33------->
G-0~----------0---0-----0-000-------------0---0-----0-000------------->
D-0~----------0h2-0h2---2-222-------------0h2-0h2---2-222------------->
A-2~----0-/5-3--------0----------------2-3--------0------------------->
E-3~--3-----------------------0----3----------------------0----3~----->
Revenge/Here’s a story/how a thief had been robbed/how a murder has stolen
my rage

Verse 4:
e------------3-333----33------------------3-333-0~---3~------>
B------------3-333----33------------------3-333-3~---3~------>
G--0---0-----0-000--------------0---0-----0-000-0~---0~------>
D--0h2-0h2---2-222--------------0h2-0h2---2-222-0~---0~------>
A-3--------0--------------0-/5-3--------0-------2~---3~------>
E------------------0----3-----------------------0~---3~------>
Think of me, Lord/I’m a few breaths away/as my lungs finally rip from the
cage

outro:
e------------3-333----33------------------0-000~------------->
B------------3-333----33------------------3-333~------------->
G--0---0-----0-000--------------0---0-----0-000~------------->
D--0h2-0h2---2-222--------------0h2-0h2---2-222~------------->
A-3--------0--------------0-2-3--------0------0~------------->
E------------------0----3---------------------0~------------->
Revenge Whoa-oh…

============================================================================

***IF YOU DO NOT HAVE THE SONG "REVENGE", YOU CAN DOWNLOAD IT HERE:

www.switchfoot.com/revenge

============================================================================

Key: (I have given this all throughout the tabs, but here they all are)
/   slide up
\   slide down
~   let ring
b   bend
h   hammer-on
p   pull-off
+   scrape harmonics
*   palm mute

============================================================================

ENJOY!!!
comments
print report bad tab
11 comments total. Showing first comments.
+1 reply
I-Z wrote on January 12 2007, 08:53 pm

YES FINALL!!!!!
SOMEONE WHO ACTUALLY TABED ALL THE SONGS AND DIDN'T STEAL THEM FROM OTHER TABBERS......I HAVE RESPECT 4 U DUDE............AND A GREAT JOB ON THE TABS!!!!!!!!!!!!!!!5 STARS!

+1 reply
Melvin McMargle wrote on January 18 2007, 03:55 am

These are probably the most accurate tabs I have ever seen. Well done!

+1 reply
YDudeG wrote on January 27 2007, 05:18 pm

5 STARS TYVM

I want to post or [tab]
guest
You may want to rate the tab now too:
select rating
Please do not post tabs as comments. Select "correction" instead!