Oops, an error
Loading. Please wait.

The Best Yet Tab

313 views 18 this week
no commentswrite comment
1 2 3 4 5
accurate
x 1
add to favorites launch autoscroll
font size
0
reset
Autoscroll
+/-
esc
set tempo
stop
Contributor
Difficulty
intermediate
WARNING: You are trying to view
                                    content from Ultimate-Guitar.com
                                    in an unauthorized application,
                                    which is prohibited.

                                    Please use an official Ultimate
                                    Guitar Tabs application for iPhone,
                                    iPad or Android to access legitimate
                                    chords, guitar, bass, and drum tabs
                                    from Ultimate-Guitar.com database.

                                    Type "ultimate guitar tabs" in Apple
                                    App Store's or Android Market's
                                    search to find the application.
This is a concordance of all the songs on the album "The Best Yet". I edited one or two
of these and added the bass for "The Beautiful Letdown" since it has such a big bass
part. here are the tracks and who made them

Dare you to Move............................aron444
Meant to Live...............................ultimate_crow
Stars.......................................mi_koala
Oh! Gravity.................................aquaknight3
This is Home................................rhyezkie
Learning to Breathe.........................unregistered
Awakening...................................aquaknight3
This is Your Life...........................xenorite (chords by unregistered)
On Fire.....................................eraserfree
Only Hope...................................youngyounghead
Dirty Second Hands..........................aquaknight3
Love is the Movement........................Switchfoot555
Company Car.................................FamousA
Lonely Nation...............................timmy3125
The Shadow Proves The Sunshine..............candysuew
24..........................................TIMAY21
The Beautiful Letdown.......................aquaknight3 (bass by me, sovaso)

Here=We=Go====================================================================

Dare You To Move

Standard Tuning- (E-A-D-G-B-e)

h = hammer-on
b = bend string
/ = slide up
\ = slide down
~ = let ring


Intro:
e|--0-0-0--000--000--00000000--0000000000000000---|
B|-121212--000--999--00000000--0000000000000000---|
G|--9-9-9--999--999--99999999--9999999999999999---|x2
D|-111111--999--999--99999999--7777777777777777---|
A|------------------------------------------------|
E|------------------------------------------------|

Verse #1:
e|--0-0-0--000--000--00000000--0000000000000000---|
B|-121212--000--999--00000000--0000000000000000---|
G|--9-9-9--999--999--99999999--9999999999999999---|x2
D|-111111--999--999--99999999--7777777777777777---|
A|------------------------------------------------|
E|------------------------------------------------|

 ("everyone's here")                     or:
e|--0000000000000000--0000000000000000--|--0000000000000000--000000000000000|
B|--0000000000000000--0000000000000000--|--0000000000000000--000000000000000|
G|--9999999999999999--9999999999999999--|--6666666666666666--999999999999999|
D|--8888888888888888--7777777777777777--|--4444444444444444--777777777777777|
A|--9999999999999999--------------------|-----------------------------------|
E|--------------------------------------|-----------------------------------|
  (this is what I play)                  (this is what they play)

Verse #2:
e|--0-0-0--000--000--00000000--0000000000000000---|
B|-121212--000--999--00000000--0000000000000000---|
G|--9-9-9--999--999--99999999--9999999999999999---|x2
D|-111111--999--999--99999999--7777777777777777---|
A|------------------------------------------------|
E|------------------------------------------------|

 ("what happens next")
e|--0000000000000000--0000000000000000----|
B|--0000000000000000--0000000000000000----|
G|--4444444444444444--8888888888888888----|
D|--5555555555555555--9999999999999999----|
A|--5555555555555555--9999999999999999----|
E|--3333333333333333--7777777777777777----|



Chorus: Guitar 1
e|--0000000000000000--0000000000000000--0000000000000000000000000000--00--|
B|--0000000000000000--0000000000000000--0000000000000000000000000000--00--|
G|--9999999999999999--8888888888888888--6666666666666666666666666666--88--|
D|--9999999999999999--9999999999999999--7777777777777777777777777777--99--|
A|--7777777777777777--9999999999999999--7777777777777777777777777777--99--|
E|--------------------7777777777777777--5555555555555555555555555555--77--|

e|--0000000000000000--0000000000000000--0000000000000000---00--|
B|--0000000000000000--0000000000000000--0000000000000000---00--|
G|--9999999999999999--8888888888888888--6666666666666666---88--|
D|--9999999999999999--9999999999999999--7777777777777777---99--|
A|--7777777777777777--9999999999999999--7777777777777777---99--|
E|--------------------7777777777777777--5555555555555555---77--|


Chorus: Guitar 2
e|------------------------------------------------------------------------|
B|------------------------------------------------------------------------|
G|--9~--------------------------------------------------------------------|
D|--9~----------------9~----------------7~----------------------------9---|
A|--7~----------------9~----------------7~----------------------------9---|
E|--------------------7~----------------5~----------------------------7---|

e|-------------------------------------------------------------|
B|-------------------------------------------------------------|
G|--9~-----------------------------------------------------9---|
D|--9~----------------9~----------------7~-----------------9---|
A|--7~----------------9~----------------7~-----------------7---|
E|--------------------7~----------------5~---------------------|



REPEAT INTRO:



REPEAT VERSE #1: (w/ guitar 2 below)

Distorted guitar 2: (octives)
e|--------------------------------------------------------------------------|
B|--------------------------------------------------------------------------|
G|--------------------------------------------------------------------------|
D|--9-111111--9-111111-1111-9-9-------44-----44-----44-66\7777-7777--77-99--|
A|--x--x-x-x--x--x-x-x--x-x-x-x-(x2)--xx-----xx-----xx-xx-xxxx-xxxx--xx-xx--|
E|--7/-9-9-9--7/-9-9-9--9-9-7-7-------22-0h2-22-0h2-22-44\5555-5555--55-77--|

e|--------------------------------------------------------------------------|
B|--------------------------------------------------------------------------|
G|--------------------------------------------------------------------------|
D|--9-111111--9-111111-1111-9-9-------44-----44-----44-66\7777-7777--77-99--|
A|--x--x-x-x--x--x-x-x--x-x-x-x-------xx-----xx-----xx-xx-xxxx-xxxx--xx-xx--|
E|--7/-9-9-9--7/-9-9-9--9-9-7-7-------22-0h2-22-0h2-22-44\5555-5555--55-77--|





REPEAT CHORUS:




Bridge: Guitar 1
e|--0000000000000000--0000000000000000--0000000000000000--0000000000000000--|
B|--0000000000000000--0000000000000000--0000000000000000--0000000000000000--|
G|--9999999999999999--6666666666666666--9999999999999999--6666666666666666--|
D|--9999999999999999--7777777777777777--9999999999999999--7777777777777777--|
A|--7777777777777777--7777777777777777--7777777777777777--7777777777777777--|
E|--------------------5555555555555555--------------------5555555555555555--|

e --0000000000000000--0000000000000000--0~-----0~--|
B --0000000000000000--0000000000000000--0~-----0~--|
G --6666666666666666--6666666666666666--3~-----8~--|
D --6666666666666666--7777777777777777--4~-----9~--|
A --4444444444444444--7777777777777777--4~-----9~--|
E --------------------5555555555555555--2~-----7~--|

Bridge: Guitar 2
e|--------------------------------------------------------------------------|
B|--------------------------------------------------------------------------|
G|--9~----9~--9~-9----------------------9~----9~-9~-9-----------------------|
D|--9~----9~--9~-9----7~----7~--7~-7~---9~----9~-9~-9----7~----7~--7~-7~----|
A|--7~----7~--7~-7----7~----7~--7~-7~---7~----7~-7~-7----7~----7~--7~-7~----|
E|--------------------5~----5~--5~-5~--------------------5~----5~--5~-5~----|

e --------------------------------------0~---------|
B --------------------------------------0~---------|
G --6~----6~--6~-6----------------------3~---------|
D --6~----6~--6~-6----7~----7~--7~-7----4~---------|
A --4~----4~--4~-4----7~----7~--7~-7----4~---------|
E --------------------5~----5~--5~-5----2~---------|


Solo:
e|--0000-000000000000---0-0-0-0-0-0-0-0-0-0-0-0-0-0-0-0----|
B|--7779-555555555555--10101010101010101010101010101010----|
G|---------------------------------------------------------|
D|---------------------------------------------------------|
A|---------------------------------------------------------|
E|---------------------------------------------------------|

e -0-0-0-0-0-0-0-0-0-0-0-0---0--0--0--0--0--0--0--0--0--0--0--0--0--0--0--0-|
B 121212121212121212121212--15b15b15b15b15b15b15b15b15b15b15b15b15b15b15b15b|
G --------------------------------------------------------------------------|
D --------------------------------------------------------------------------|
A --------------------------------------------------------------------------|
E --------------------------------------------------------------------------|


Chorus: Guitar 1
e|--0000000000000000--0000000000000000--0000000000000000000000000000--00--|
B|--0000000000000000--0000000000000000--0000000000000000000000000000--00--|
G|--9999999999999999--8888888888888888--6666666666666666666666666666--88--|
D|--9999999999999999--9999999999999999--7777777777777777777777777777--99--|
A|--7777777777777777--9999999999999999--7777777777777777777777777777--99--|
E|--------------------7777777777777777--5555555555555555555555555555--77--|

e|--0000000000000000--0000000000000000--0000000000000000--0000000000000000-|
B|--0000000000000000--0000000000000000--0000000000000000--0000000000000000-|
G|--9999999999999999--8888888888888888--6666666666666666--6666666666666666-|
D|--9999999999999999--9999999999999999--7777777777777777--6666666666666666-|
A|--7777777777777777--9999999999999999--7777777777777777--4444444444444444-|
E|--------------------7777777777777777--5555555555555555-------------------|

e|--0000000000000000--00000---0-----|
B|--0000000000000000--00000---0-----|
G|--6666666666666666--88888--\1~----|
D|--7777777777777777--99999--\2~----|
A|--7777777777777777--99999--\2~----|
E|--5555555555555555--77777--\0~----|



Chorus: Guitar 2 (listen for alternate strumming)
e|--0~--------------------------------------------------------------------|
B|--0~--------------------------------------------------------------------|
G|--1~--------------------------------------------------------------------|
D|--2~----------------9~----------------7~----------------------------9---|
A|--2~----------------9~----------------7~----------------------------9---|
E|--0~----------------7~----------------5~----------------------------7---|

e|-------------------------------------------------------------|
B|-------------------------------------------------------------|
G|--9~----------------------------------------------------6~---|
D|--9~----------------9~----------------7~----------------6~---|
A|--7~----------------9~----------------7~----------------4~---|
E|--------------------7~----------------5~---------------------|

e|-----------------------------------|
B|-----------------------------------|
G|-----------------------------------|
D|--7~----------------9~------\2~----|
A|--7~----------------9~------\2~----|
E|--5~----------------7~------\0~----|

End===========================================================================

Meant to Live

Drop D

e:-----------------------------------------------------------------|
b:-----------------------------------------------------------------|
g:-----------------------------------------------------------------| x2
d:-4-4-4--4b--4r--2-2-2--4b--4r---------4b--4r--0-2-0-0-0-2-2------|
a:-2-2-2----------0-0-0----------2-2-2----------0-2-0-0-0-2-0------|
D:-------------------------------2-2-2----------0-2-0-0-0-2--------|


e:-----------------------------------------------------------------|
b:-----------------------------------------------------------------|
g:-----------------------------------------------------------------|
d:-4-4-4--4b--4r--2-2-2--4b--4r---------4b--4r--4-4-4-4-4-4-5------|
a:-2-2-2----------0-0-0----------2-2-2----------4-4-4-4-4-4-5------|
D:-------------------------------2-2-2----------4-4-4-4-4-4-5------|
                                                            Hold
Verse
e:-----------------------------------------------------------------|
b:-----------------------------------------------------------------|
g:-----------------------------------------------------------------|
d:-4-0--0-2-0--0-4-0--0-4-5-4--4-0--0-2-0--0-4-0--0-4-5-7--5-------|
a:-4-0--0-2-0--0-4-0--0-4-5-4--4-0--0-2-0--0-4-0--0-4-5-7--5-------|
D:-4-0--0-2-0--0-4-0--0-4-5-4--4-0--0-2-0--0-4-0--0-4-5-7--5-------|
                                                           Hold

e:---------------------------------------------------------|
b:---------------------------------------------------------|
g:---------------------------------------------------------|
d:-4-0--0-2-0--0-4-0--0-4-5-4--4-0--0-2-0--0-4-0--0-4-5-7--|
a:-4-0--0-2-0--0-4-0--0-4-5-4--4-0--0-2-0--0-4-0--0-4-5-7--|
D:-4-0--0-2-0--0-4-0--0-4-5-4--4-0--0-2-0--0-4-0--0-4-5-7--|

Chorus 2x
e:--------------------------------------------------------------|
b:--------------------------------------------------------------|
g:----------------------------------------------------0---------|
d:-5-5-x-x-x-x-x-7-7-x-x-x-x-x-9-9-x-x-x-x-x-0-2-2-2--4b--4r----|
a:-5-5-x-x-x-x-x-7-7-x-x-x-x-x-9-9-x-x-x-x-x-0-2-2-2------------|
D:-5-5-x-x-x-x-x-7-7-x-x-x-x-x-9-9-x-x-x-x-x-0-2-2-2------------|

e:---------------------------------------------------------------|
b:---------------------------------------------------------------|
g:------------------------0--------------------------------------|
d:-5-5-x-x-x-x-x-0-2-2-2--4b--4r--5-5-x-x-x-x-x-0-2-2-2----------|
a:-5-5-x-x-x-x-x-0-2-2-2----------5-5-x-x-x-x-x-0-2-2-2----------|
D:-5-5-x-x-x-x-x-0-2-2-2----------5-5-x-x-x-x-x-0-2-2-2----------|
   |____________________________|
      2nd time dont play this
2nd Verse
e:--------------------------------------------|
b:--------------------------------------------|
g:--------------------------------------------|
d:-4-0-2-0-4-0-4-5-4--4-0-2-0-4-0-4-5-7--5----|  2x
a:-4-0-2-0-4-0-4-5-4--4-0-2-0-4-0-4-5-7--5----|
D:-4-0-2-0-4-0-4-5-4--4-0-2-0-4-0-4-5-7--5----|
                                         Hold

e:---------------------------------------|
b:---------------------------------------|
g:---------------------------------------|
d:-4-0-2-0-4-0-4-5-4--4-0-2-0-4-0-4-5-7--|
a:-4-0-2-0-4-0-4-5-4--4-0-2-0-4-0-4-5-7--|
D:-4-0-2-0-4-0-4-5-4--4-0-2-0-4-0-4-5-7--|

Bridge
Strum these chords(Listen to the song for struming pattern)
e:-x----x----0----x--|
b:-3----3----3----1--|
g:-2----0----0----0--|
d:-0----0----2----2--|
a:-0----x----2----3--|
D:-0----5----2----x--|

Outro
                                slide slow
e:-------------------------------------------------------------|
b:-------------------------------------------------------------|
g:-------------------7-7-7-7-7-7-7\--/11-11-11-11-11-11--------|
d:-------------------------------------------------------------| 3x
a:-------------------5-5-5-5-5-5-5\--/9--9--9--9--9--9---------|
D:-------------------------------------------------------------|
|________________Second guitar plays this part________________|
First guitar strums this
e:-x-
b:-3-
g:-2-
d:-0-
a:-0-
D:-0-

e:------------------------------------|
b:------------------------------------|
g:------------------------------------|
d:-4-4-4--4b--4r--2-2-2--4b--4r---2---|
a:-2-2-2----------0-0-0-----------2---|
D:--------------------------------2---|

Intro     1x
Verse     1x
Chorus    2x
2nd Verse 1x
Chorus    2x
Intro     1x
Bridge    1x
Outro     1x

END===========================================================================

Stars

Drop D

*Intro
Gtr 1,2,3
e|--------------------------------------------------------------------------------|
B|--------------------------------------------------------------------------------|
G|-------6-7-----11------9-----131614-----6-7-----11------9---9-9-9---------------|
D|-0-0-0-x-x-0-0-x-0-0-0-x-0-0-x-x-x--0-0-x-x-0-0-x-0-0-0-x-0-x-x-x---------------|
A|-0-0-0-4-5-0-0-9-0-0-0-7-0-0-111412-0-0-4-5-0-0-9-0-0-0-7-0-7-7-7---------------|
D|-0-0-0-----0-0---0-0-0---0-0--------0-0-----0-0---0-0-0---0---------------------|

Gtr 1,2,3
e|--------------------------------------------------------------------------------|
B|--------------------------------------------------------------------------------|
G|---6---6-7-----11------9-----131614-----6-7-----11------9---9-9-9---------------|
D|-0-x-0-x-x-0-0-x-0-0-0-x-0-0-x-x-x--0-0-x-x-0-0-x-0-0-0-x-0-x-x-x---------------|3x
A|-0-4-0-4-5-0-0-9-0-0-0-7-0-0-111412-0-0-4-5-0-0-9-0-0-0-7-0-7-7-7---------------|
D|-0---0-----0-0---0-0-0---0-0--------0-0-----0-0---0-0-0---0---------------------|

**Sequence 1
Gtr 1,2,3
e|--------------------------------------------------------------------------------|
B|--------------------------------------------------------------------------------|
G|--------------------------------------------------------------------------------|
D|-0-2-0-----0-7---0-4-5---0-2------0-2-0-----0-7---0-4-5-------------------------|2x
A|-0-2-0-4/5-0-7-9-0-4-5-7-0-2-4/5--0-2-0-4/5-0-7-9-0-4-5-7--7-7-7----------------|
D|-0-2-0-----0-7---0-4-5---0-2------0-2-0-----0-7---0-4-5-------------------------|

*Verse 1
Gtr 1
e|--------------------------------------------------------------------------------|
B|--------------------------------------------------------------------------------|
G|-7------------------------------------7-------------7---------------------------|
D|-7------------------------------------7-------------7---------------------------|
A|-5------------------------------------5-------------5---------------------------|
D|-x------------------------------------5-------------x---------------------------|
Gtr 2
e|-x--------------------------------------------------x---------------------------|
B|-3--------------------------------------------------3---------------------------|
G|-2--------------------------------------------------2---------------------------|
D|-0------------------------------------5-------------0---------------------------|
A|-0------------------------------------5-------------0---------------------------|
D|-0------------------------------------5-------------0---------------------------|
    Maybe I've been the problem, maybe I'm the one to blame

Gtr 1
e|--------------------------------------------------------------------------------|
B|--------------------------------------------------------------------------------|
G|------------------12--------------7-----------------7-----------------6---------|
D|------------------12--------------7-----------------7-----------------7---------|
A|------------------10--------------5-----------------7-----------------7---------|
D|------------------10--------------5-----------------7-----------------7---------|
Gtr 2
e|--------------------------------------------------------------------------------|
B|--------------------------------------------------------------------------------|
G|----------------------------------------------------7-----------------6---------|
D|------------------10--------------5-----------------7-----------------7---------|
A|------------------10--------------5-----------------7-----------------7---------|
D|------------------10--------------5-----------------7-----------------7---------|
    But even when I turn it off and blame myself, the outcome feels the same


Gtr 1
e|--------------------------------------------------------------------------------|
B|--------------------------------------------------------------------------------|
G|--------------------------7------------------------------7-----------------7----|
D|--------------------------7------------------------------7-----------------7----|
A|--------------------------5------------------------------5-----------------5----|
D|--------------------------x------------------------------5-----------------x----|
Gtr 2
e|--------------------------x------------------------------------------------x----|
B|--------------------------3------------------------------------------------3----|
G|--------------------------2------------------------------------------------2----|
D|--------------------------0------------------------------5-----------------0----|
A|--------------------------0------------------------------5-----------------0----|
D|--------------------------0------------------------------5-----------------0----|
Gtr 3
e|--------------------------------------------------------------------------------|
B|------------------------------------------------------------------------15------|
G|--------------------------14-------------------------------------16-----x---14--|
D|--------------------------x--------------------------------------x------12--x---|
A|--------------------------12-------------------------------------14---------12--|
D|--------------------------------------------------------------------------------|
    I've been thinkin maybe I've been partly cloudy, maybe I'm the chance of rain


Gtr 1
e|--------------------------------------------------------------------------------|
B|--------------------------------------------------------------------------------|
G|----------------12-----------7-----------------7-----------------6--------------|
D|----------------12-----------7-----------------7-----------------7--------------|
A|----------------10-----------5-----------------7-----------------7--------------|
D|----------------10-----------5-----------------7-----------------7--------------|
Gtr 2
e|--------------------------------------------------------------------------------|
B|--------------------------------------------------------------------------------|
G|-----------------------------------------------7-----------------6--------------|
D|----------------10-----------5-----------------7-----------------7--------------|
A|----------------10-----------5-----------------7-----------------7--------------|
D|----------------10-----------5-----------------7-----------------7--------------|
Gtr 3
e|--------------------------------------------------------------------------------|
B|------------15--13--------------------------------------------------------------|
G|-16---------x---x------------12----------------9--------------------------------|
D|-x----------12--10-----------x-----------------x--------------------------------|
A|-14--------------------------10----------------7--------------------------------|
D|--------------------------------------------------------------------------------|
    And maybe I'm overcast and maybe all my luck's washed down the drain


Gtr 1,2,3
e|--------------------------------------------------------------------------------|
B|--------------------------------------------------------------------------------|
G|--------------------------------------------------------------------------------|
D|--------------------------7---------9-----------------11--------12--------------|
A|--------------------------5---------7-----------------9---------10--------------|
D|--------------------------5---------7-----------------9---------10--------------|
    I've been thinkin 'bout ev'ryone, ev'ryone you look so lonely


*Chorus
Gtr 1
e|-------------------------x------------------------------------------------------|
B|-------------------------3------------------------------------------------------|
G|-------------------------2---------------------------7--------------------------|
D|-------------------------0---------------------------7--------------------------|
A|-------------------------0---------------------------5--------------------------|
D|-------------------------0---------------------------5--------------------------|
Gtr 2
e|--------------------------------------------------------------------------------|
B|--------------------------------------------------------------------------------|
G|-------------------------119-7-2---------------------119-7----------------------|
D|-------------------------x-x-x-0---------------------x-x-x-5--------------------|
A|-------------------------9-7-5-0---------------------9-7-5-5--------------------|
D|-----------------------------------------------------------5--------------------|
    But when I look at the sta--rs, when I look at the stars


Gtr 1
e|--------------------------------------------------------------------------------|
B|--------------------------------------------------------------------------------|
G|--------------------12----7-----------------------------------------------------|
D|--------------------12----7-------------------0-2-0-----0-7---0-4-5-------------|
A|--------------------10----5-------------------0-2-0-4/5-0-7-9-0-4-5-7--7-7-7----|
D|--------------------10----5-------------------0-2-0-----0-7---0-4-5-------------|
Gtr 2
e|--------------------------------------------------------------------------------|
B|--------------------------------------------------------------------------------|
G|--------------------119-7-------------------------------------------------------|
D|--------------------x-x-x-5-------------------0-2-0-----0-7---0-4-5-------------|
A|--------------------9-7-5-5-------------------0-2-0-4/5-0-7-9-0-4-5-7--7-7-7----|
D|--------------------------5-------------------0-2-0-----0-7---0-4-5-------------|
    When I look at the sta--rs, I see someone else                 When I look at the


Gtr 1
e|--------------------------------------------------------------------------------|
B|--------------------------------------------------------------------------------|
G|--7------------4-----7----------------------------------------------------------|
D|--7------------4-----7-----------------***Play Sequence 1 once------------------|
A|--5------------2-----7----------------------------------------------------------|
D|--5------------2-----7----------------------------------------------------------|
Gtr 2
e|--------------------------------------------------------------------------------|
B|--------------------------------------------------------------------------------|
G|--119-7--------119-7-7----------------------------------------------------------|
D|--x-x-x-5------x-x-x-7-----------------***Play Sequence 1 once------------------|
A|--9-7-5-5------9-7-5-7----------------------------------------------------------|
D|--------5------------7----------------------------------------------------------|
    Sta--rs, the sta--rs, I feel like myself


*Verse 2
Gtr 1
e|--------------------------------------------------------------------------------|
B|--------------------------------------------------------------------------------|
G|-7--------------------------------------7-----------7---------------------------|
D|-7--------------------------------------7-----------7---------------------------|
A|-5--------------------------------------5-----------5---------------------------|
D|-x--------------------------------------5-----------x---------------------------|
Gtr 2
e|-x--------------------------------------------------x---------------------------|
B|-3--------------------------------------------------3---------------------------|
G|-2--------------------------------------------------2---------------------------|
D|-0--------------------------------------5-----------0---------------------------|
A|-0--------------------------------------5-----------0---------------------------|
D|-0--------------------------------------5-----------0---------------------------|
Gtr 3
e|--------------------------------------------------------------------------------|
B|------------------------------------------------15------------------------------|
G|-14------------------------------------------16-x---14--------------------------|
D|-x-------------------------------------------x--12--x---------------------------|
A|-12------------------------------------------14-----12--------------------------|
D|--------------------------------------------------------------------------------|
    Stars looking at our planet, watching entropy and pain


Gtr 1
e|--------------------------------------------------------------------------------|
B|--------------------------------------------------------------------------------|
G|---------------------12-------------7--------------7-----------------6----------|
D|---------------------12-------------7--------------7-----------------7----------|
A|---------------------10-------------5--------------7-----------------7----------|
D|---------------------10-------------5--------------7-----------------7----------|
Gtr 2
e|--------------------------------------------------------------------------------|
B|--------------------------------------------------------------------------------|
G|---------------------------------------------------7-----------------6----------|
D|---------------------10-------------5--------------7-----------------7----------|
A|---------------------10-------------5--------------7-----------------7----------|
D|---------------------10-------------5--------------7-----------------7----------|
Gtr 3
e|--------------------------------------------------------------------------------|
B|------------15-------13---------------------------------------------------------|
G|-16---------x--------x--------------12-------------9----------------------------|
D|-x----------12-------10-------------x--------------x----------------------------|
A|-14---------------------------------10-------------7----------------------------|
D|--------------------------------------------------------------------------------|
    And maybe start to wonder how the chaos in our lives could pass as sane


Gtr 1
e|--------------------------------------------------------------------------------|
B|--------------------------------------------------------------------------------|
G|------------------------------7---------------------------7--------------7------|
D|------------------------------7---------------------------7--------------7------|
A|------------------------------5---------------------------5--------------5------|
D|------------------------------x---------------------------5--------------x------|
Gtr 2
e|------------------------------x------------------------------------------x------|
B|------------------------------3------------------------------------------3------|
G|------------------------------2------------------------------------------2------|
D|------------------------------0---------------------------5--------------0------|
A|------------------------------0---------------------------5--------------0------|
D|------------------------------0---------------------------5--------------0------|
Gtr 3
e|--------------------------------------------------------------------------------|
B|----------------------------------------------------------------------15--------|
G|------------------------------14---------------------------------16---x--14-----|
D|------------------------------x----------------------------------x----12-x------|
A|------------------------------12---------------------------------14------12-----|
D|--------------------------------------------------------------------------------|
    I've been thinkin 'bout the meaning of resistance, of a hope beyond my own


Gtr 1
e|--------------------------------------------------------------------------------|
B|--------------------------------------------------------------------------------|
G|-------------------12-----------7----------7----------------6-------------------|
D|-------------------12-----------7----------7----------------7-------------------|
A|-------------------10-----------5----------7----------------7-------------------|
D|-------------------10-----------5----------7----------------7-------------------|
Gtr 2
e|--------------------------------------------------------------------------------|
B|--------------------------------------------------------------------------------|
G|-------------------------------------------7----------------6-------------------|
D|-------------------10-----------5----------7----------------7-------------------|
A|-------------------10-----------5----------7----------------7-------------------|
D|-------------------10-----------5----------7----------------7-------------------|
Gtr 3
e|--------------------------------------------------------------------------------|
B|------------15-----13-----------------------------------------------------------|
G|-16---------x------x------------12---------9------------------------------------|
D|-x----------12-----10-----------x----------x------------------------------------|
A|-14-----------------------------10---------7------------------------------------|
D|--------------------------------------------------------------------------------|
    And suddenly the infinite and penitent begin to look like home


Gtr 1,2,3
e|--------------------------------------------------------------------------------|
B|--------------------------------------------------------------------------------|
G|--------------------------------------------------------------------------------|
D|--------------------------7---------9-----------------11--------12--------------|
A|--------------------------5---------7-----------------9---------10--------------|
D|--------------------------5---------7-----------------9---------10--------------|
    I've been thinkin 'bout ev'ryone, ev'ryone you look so empty


*Chorus
Gtr 1
e|-------------------------x------------------------------------------------------|
B|-------------------------3------------------------------------------------------|
G|-------------------------2---------------------------7--------------------------|
D|-------------------------0---------------------------7--------------------------|
A|-------------------------0---------------------------5--------------------------|
D|-------------------------0---------------------------5--------------------------|
Gtr 2
e|--------------------------------------------------------------------------------|
B|--------------------------------------------------------------------------------|
G|-------------------------119-7-2---------------------119-7----------------------|
D|-------------------------x-x-x-0---------------------x-x-x-5--------------------|
A|-------------------------9-7-5-0---------------------9-7-5-5--------------------|
D|-----------------------------------------------------------5--------------------|
    But when I look at the sta--rs, when I look at the stars


Gtr 1
e|--------------------------------------------------------------------------------|
B|--------------------------------------------------------------------------------|
G|--------------------12----7-----------------------------------------------------|
D|--------------------12----7-------------------0-2-0-----0-7---0-4-5-------------|
A|--------------------10----5-------------------0-2-0-4/5-0-7-9-0-4-5-7--7-7-7----|
D|--------------------10----5-------------------0-2-0-----0-7---0-4-5-------------|
Gtr 2
e|--------------------------------------------------------------------------------|
B|--------------------------------------------------------------------------------|
G|--------------------119-7-------------------------------------------------------|
D|--------------------x-x-x-5-------------------0-2-0-----0-7---0-4-5-------------|
A|--------------------9-7-5-5-------------------0-2-0-4/5-0-7-9-0-4-5-7--7-7-7----|
D|--------------------------5-------------------0-2-0-----0-7---0-4-5-------------|
    When I look at the sta--rs, I see someone else                 When I look at the


Gtr 1
e|--------------------------------------------------------------------------------|
B|--------------------------------------------------------------------------------|
G|--7------------4-----7----------------------------------------------------------|
D|--7------------4-----7-----------------------------***Play Sequence 1 once------|
A|--5------------2-----7----------------------------------------------------------|
D|--5------------2-----7----------------------------------------------------------|
Gtr 2
e|--------------------------------------------------------------------------------|
B|--------------------------------------------------------------------------------|
G|--119-7--------119-7-7----------------------------------------------------------|
D|--x-x-x-5------x-x-x-7-----------------------------***Play Sequence 1 once------|
A|--9-7-5-5------9-7-5-7----------------------------------------------------------|
D|--------5------------7----------------------------------------------------------|
    Sta--rs, the sta--rs, I feel like myself... YEAH!!!


Gtr 1,2,3
e|--------------------------------------------------------------------------------|
B|--------------------------------------------------------------------------------|
G|--7--6--6----------------------------------7--6--6------------------------------|
D|--7--7--x--0-2-0-----0-7---0-4-5-----------7--7--x------------------------------|
A|--5--4--7--0-2-0-4/5-0-7-9-0-4-5-7--7-7-7--5--4--7------------------------------|
D|--5--4--7--0-2-0-----0-7---0-4-5-----------5--4--7------------------------------|
    Sta--rs                                  Sta--rs


Gtr 1,2,3
e|--------------------------------------------------------------------------------|
B|--------------------------------------------------------------------------------|
G|------------------------------------4-------------------------------------------|
D|-7---------9-----------------7------x---7-------------9-----------------11---12-|
A|-5---------7-----------------4------5---5-------------7-----------------9----10-|
D|-5---------7-----------------4------5---5-------------7-----------------9----10-|
   Ev'ryone, ev'ryone you feel so lonely, ev'ryone yeah ev'ryone you feel so empty


Gtr 1,2,3
e|--------------------------------------------------------------------------------|
B|--------------------------------------------------------------------------------|
G|--------------------------------------------------------------------------------|
D|--------------------------------------------------------------------------------|
A|--------------------------------------------------------------------------------|
D|--------------------------------------------------------------------------------|
   When I look at the sta--rs, when I look at the stars,


Gtr 1
e|--------------------------------------------------------------------------------|
B|--------------------------------------------------------------------------------|
G|--------------------12----7-----------------------------------------------------|
D|--------------------12----7-------------------0-2-0-----0-7---0-4-5-------------|
A|--------------------10----5-------------------0-2-0-4/5-0-7-9-0-4-5-7-7-7-7-----|
D|--------------------10----5-------------------0-2-0-----0-7---0-4-5-------------|
Gtr 2
e|--------------------------------------------------------------------------------|
B|--------------------------------------------------------------------------------|
G|--------------------------------------------------------------------------------|
D|--------------------10----5-------------------0-2-0-----0-7---0-4-5-------------|
A|--------------------10----5-------------------0-2-0-4/5-0-7-9-0-4-5-7-7-7-7-----|
D|--------------------10----5-------------------0-2-0-----0-7---0-4-5-------------|
   When I look at the sta--rs, I feel like myself                 When I look at the


Gtr 1,2,3
e|--------------------------------------------------------------------------------|
B|--------------------------------------------------------------------------------|
G|-7------------4-----7-----------------------------------------------------------|
D|-7------------4-----7-----------------------------------------------------------|
A|-5------------2-----7-----------------------------------------------------------|
D|-5------------2-----7-----------------------------------------------------------|
   Sta--rs, the sta--rs,

Gtr 1,2,3
e|--------------------------------------------------------------------------------|
B|--------------------------------------------------------------------------------|
G|--------------------------------------------------------------------------------|
D|-------------0-2-0-----0-7---0-4-5---0-2------0-2-0-----0-7---0-4-5-------------|
A|-------------0-2-0-4/5-0-7-9-0-4-5-7-0-2-4/5--0-2-0-4/5-0-7-9-0-4-5-7--7-7-7----|
D|-------------0-2-0-----0-7---0-4-5---0-2------0-2-0-----0-7---0-4-5-------------|
   I see someone                                                              AHHHH!!!


Gtr 1
e|--------------------------------------------------------------------x-----------|
B|--------------------------------------------------------------------3-----------|
G|--------------------------------------------------------------------2-----------|
D|-0-2-0-----0-7---0-4-5---0-2------0-2-0-----0-7---0-4-5---0-2-------0-*ring out*|
A|-0-2-0-4/5-0-7-9-0-4-5-7-0-2-4/5--0-2-0-4/5-0-7-9-0-4-5-7-0-2-4/5---0-----------|
D|-0-2-0-----0-7---0-4-5---0-2------0-2-0-----0-7---0-4-5---0-2-------0-----------|
Gtr 2
e|--------------------------------------------------------------------------------|
B|--------------------------------------------------------------------------------|
G|--------------------------------------------------------------------7-----------|
D|-0-2-0-----0-7---0-4-5---0-2------0-2-0-----0-7---0-4-5---0-2-------x-*ring out*|
A|-0-2-0-4/5-0-7-9-0-4-5-7-0-2-4/5--0-2-0-4/5-0-7-9-0-4-5-7-0-2-4/5---5-----------|
D|-0-2-0-----0-7---0-4-5---0-2------0-2-0-----0-7---0-4-5---0-2-------0-----------|
Gtr 3
e|-x-----x---------x-----x----------x-------x-----x--x------x---x-----x-----------|
B|-x-----x---------17----15---------x-------x-----x--15-----x---x-----x-----------|
G|-16----14--------x-----x----------14------12----11-x------12--12\11-11----------|
D|-x-----x---------14----12---------x-------x-----x--12-----x---x-----x-*ring out*|
A|-14----12--------x-----x----------12------10----9--x------10--10\9--9-----------|
D|-x-----x---------x-----x----------x-------x-----x--x------x---x-----0-----------|

END===========================================================================

Oh! Gravity

Drop D

Intro: guitar 1
/e--------------------------------------------------------||\
|B------5-----------5-----------3-----------5-------------||
|G----66--6-66446-66--6-66446-44--4-44224-66--6-664-------||
|D-------------------------------------------------7------||
|A--------------------------------------------------------||
|D--------------------------------------------------------||
|                                                        |
|Intro: guitar 2                                         |
|e--------------------------------------------------------||
|B--------------------------------------------------------||
|G--------------------------------------------------------||
|D-0-7---7-0---0-7---7-0---0-5---5-0---0-7---7-0---0-7----||
|A-0-7---7-0---0-7---7-0---0-5---5-0---0-7---7-0---0-7----||
\D-0-7---7-0---0-7---7-0---0-5---5-0---0-7---7-0---0-7----||/

Verse 1: guitar 1
/e--------------------------------------------------------------------------||\
|B----------------55335------------55335------------------------------------||
|G----------------66446------------66446------------------------------------||
|D--------------------------------------------------------------------------||
|A--------------------------------------------------------------------------||
|D--------------------------------------------------------------------------||
|             (color bar)       (parked car)                               |
|Verse 1: guitar 2                                                         |
|e------------------------------------------------------------------------||
|B------------------------------------------------------------------------||
|G------------------------------------------------------------------------||
|D-+++++++++++++++++++77+++++++++++++++++++55++++++++++++++77++++++++++++-||
|A-+++++++++++++++++++77+++++++++++++++++++55++++++++++++++77++++++++++++-||
\D-+++++++++++++++++++77+++++++++++++++++++55++++++++++++++77++++++++++++-|/
There’s a fracture in the color bar/in the backseat of a parked car/by the
liquor store where the street light/keep you company ‘till the next night

Verse 1: guitar 1
       (same town)       (same glow)     (freeway)      (company)
/e--------9/12\9-----------9/12\9---------7/10\7----------9/12\9------------||\
|B----------------55335------------55335----------33223---------------------||
|G----------------66446------------66446----------44224----------6666-------||
|D---------------------------------------------------------------66663333---||
|A---------------------------------------------------------------44443333---||
|D-------------------------------------------------------------------3333---||
|              (same scar)     (liquor store)  (headlight)     (next night)|
|Verse 1: guitar 2                                                         |
|e--------------------------------------------------------------------------||
|B--------------------------------------------------------------------------||
|G---------------------------------------------------------------6666-------||
|D-++++0-7-++++7-0-++++0-7-++++7-0-++++0-5-++++5-0-++++0-7-++++++66663333---||
|A-++++0-7-++++7-0-++++0-7-++++7-0-++++0-5-++++5-0-++++0-7-++++++44443333---||
\D-++++0-7-++++7-0-++++0-7-++++7-0-++++0-5-++++5-0-++++0-7-++++++----3333---||/
In the same town there’s the same scar/in the same glow of the liquor store/
by the freeway where the headlight/keeps her company ‘till the next night

Chorus: both guitars (r= 10th fret)
e------------------------------------------------------------------|
B-rrrrrrrrrrrrrrrrrrrrrrrrrrrrrrrrrrrrrrrrrrrrrrrrrrrrrrrrrrrrrrrr-|
G-9999999999999999999999999999999999999999999999999999999999999999-|
D-7777777700000000777777770000000077777777000000007777777700000000-|
A-7777777700000000777777770000000077777777000000007777777700000000-|
D-7777777700000000777777770000000077777777000000007777777700000000-|
Oh! gravity why can’t we seem to keep it together? Sons of my enemies, why
can’t we seem to keep it together?

Fill: guitar 1
/e----------------------||\
|B----5-----------5-----||
|G--66--6-66446-66--6---||
|D----------------------||
|A----------------------||
|D----------------------||
|                      |
|Fill: guitar 2        | PIANO THING
|e----------------------||
|B----------------------||
|G----------------------||
|D-7---7-0---0-7--------||
|A-7---7-0---0-7--------||
\D-7---7-0---0-7--------||/

Verse 1: guitar 1
        (back room)     (thin man)      (red jaw)        (headline)
/e--------9/12\9--9\7/9---9/12\9--9\7/9---7/10\7--7\5/7---9/12\9/ - - 21----||\
|B--------------------------------------------------------------------------||
|G--------------------------------------------------------------------------||
|D--------------------------------------------------------------------------||
|A--------------------------------------------------------------------------||
|D--------------------------------------------------------------------------||
|               (Pentagon)     (line drawn)    (red bite)                  |
|Verse 1: guitar 2                                                         |
|e--------------------------------------------------------------------------||
|B--------------------------------------------------------------------------||
|G---------------------------------------------------------------6666-------||
|D-++++0-7-++++7-0-++++0-7-++++7-0-++++0-5-++++5-0-++++0-7-++++++66663333---||
|A-++++0-7-++++7-0-++++0-7-++++7-0-++++0-5-++++5-0-++++0-7-++++++44443333---||
\D-++++0-7-++++7-0-++++0-7-++++7-0-++++0-5-++++5-0-++++0-7-++++++----3333---||/
In the back room of the pentagon/there’s a thin man with the line drawn/
with a red jaw and a red bite/watch the headline on the next night

---REPEAT CHORUS

chorus 2: both guitars (r=10th fret)
e-5555555555555555-------------------------------------------------|
B-7777777777777777rrrrrrrrrrrrrrrrrrrrrrrrrrrrrrrr-----------------|
G-666666666666666699999999999999999999999999999999-----------------|
D-4444444400000000777777770000000077777777000000004444444400000000-|
A-4444444400000000777777770000000077777777000000004444444400000000-|
D-4444444400000000777777770000000077777777000000004444444400000000-|
Why this tragedy? Why can’t we seem to keep it together? oh gravity why
can’t we seem to pull it together

Bridge: guitar 1
          (fallout)                      (connected)
/e--------------------------------------------------------------------||\
|B--------------------------------------------------------------------||
|G--------------------------------------------------------------------||
|D---6/7-----6/7-----6/7-------------6/7-----6/7-----6/7--77664422----||
|A--------------------------------------------------------------------||
|D--------------------------------------------------------------------||
| (fallout)      (found out)     (connected)      (meant it)         |
|Bridge: guitar 2                                                    |
|e--------------------------------------------------------------------||
|B--------------------------------------------------------------------||
|G--------------------------------------------------------------------||
|D-77------00------77------0000000077------00------77------00000000---||
|A-77------00------77------0000000077------00------77------00000000---||
\D-77------00------77------0000000077------00------77------00000000---||/
In the fallout, the fallout we found out/the hype won’t get you through/
connected, connected, I meant it; the hype won’t get you through

Fill 2: both guitars (r= 10th fret)
e----------------------------------|
B-rrrrrrrrrrrrrrrrrrrrrrrrrrrrrrrr-|
G-99999999999999999999999999999999-|
D-77777777000000007777777700000000-|
A-77777777000000007777777700000000-|
D-77777777000000007777777700000000-|
Through!

Chorus 3: guitar 3/undistorted guitar
e------------------------------------------------------------|
B-8-10-8-7--10-7---10--8---7--8-10-8-7--10-7----10-7--10~----|
G----------------9---9---9-------------------9--------9~-----|
D------------------------------------------------------------|
A------------------------------------------------------------|
D------------------------------------------------------------|
Oh gravity why can’t we seem to keep it together? Oh gravity why can’t we
seem to pull it together?

---REPEAT CHORUS 2

chorus 4: both guitars (r= 10th fret)
e---------------------------------------------------------------|
B-rrrrrrrrrrrrrrrrrrrrrrrrrrrrrrrrrrrrrrrrrrrrrrrrrrrrrrrrr-----|
G-999999999999999999999999999999999999999999999999999999999-----|
D-777777770000000077777777000000007777777700000000777777770-----|
A-777777770000000077777777000000007777777700000000777777770-----|
D-777777770000000077777777000000007777777700000000777777770-----|
La lalalalala lala la la la lalalalala la lalalalala lalala la let’s pull it
together

END===========================================================================

This is Home
Standard tuning

Gtr.Tuning:Standard(Normal)

Intro:(Keyboard converted to guitar)
e|-----20----20----20----20---------20----20----20----20----20-------|
B|-----20-17-20-17-20-17-20-17------20-17-20-17-20-17-20-17-20--17---|
G|-17~--------------------------17~----------------------------------| Repeat many times...
D|-------------------------------------------------------------------|
A|-------------------------------------------------------------------|
E|-------------------------------------------------------------------|

Verse 1:I've got my memories...
Play intro

Verse 1 Chords:C,A,Fm,G,A

Pre-Chorus:
e|-1~---0~---3~---------|
B|-3~---3~---3~--3------|
G|-2~---2~---0~----0~---|
D|-0~---2----0~---------|
A|------0~---2~---------|
E|-----------3~---------|

Chorus:This is Home..
e|-0000-3333-0000-1111---0000-3333-1111-0000-3333---1111-0000-0000-33----1111-0000-3~---|
B|-1111-3333-3333-1111---1111-3333-3333-3333-3333---1111-1111-3333-33----1111-1111-3~---|
G|-0000-0000-2222-2222---0000-0000-2222-2222-0000---2222-0000-2222-00----2222-0000-0~---|
D|-2222-0000-2222-3333---2222-0000-0000-2222-0000---3333-2222-2222-00----3333-2222-0~---|
A|-3333-2222-0000-3333---3333-2222------0000-2222---3333-3333-0000-22----3333-3333-2~---|
E|------3333------1111--------3333-----------3333---1111-----------33----1111------3~---|

Verse 2:Belief over misery...
Play Verse 1

Chorus:This is home...
e|-0000-3333-0000-1111---0000-3333-1111-0000-3333---1111-0000-0000-33----1111-0000-3333---|
B|-1111-3333-3333-1111---1111-3333-3333-3333-3333---1111-1111-3333-33----1111-1111-3333---|
G|-0000-0000-2222-2222---0000-0000-2222-2222-0000---2222-0000-2222-00----2222-0000-0000---|
D|-2222-0000-2222-3333---2222-0000-0000-2222-0000---3333-2222-2222-00----3333-2222-0000---|
A|-3333-2222-0000-3333---3333-2222------0000-2222---3333-3333-0000-22----3333-3333-2222---|
E|------3333------1111--------3333-----------3333---1111-----------33----1111------3333---|

Bridge:And now...
e|-0000-3333-1111-111---0000-3333-1111-1111-0~---|
B|-1111-3333-1111-111---1111-3333-1111-1111-1~---|
G|-0000-0000-1111-222---0000-0000-1111-2222-0~---|
D|-2222-0000-3333-333---2222-0000-3333-3333-2~---|
A|-3333-2222-3333-333---3333-2222-3333-3333-3~---|
E|------3333-1111-111--------3333-1111-1111------|

                                           Hoooo...
e|-------20--------20------20----------------------|
B|-------20--------20------20----------------------|
G|-----------------------------222-444-444---------|
D|-17-15-----17-15---17-15-----222-444-444-33333---|
A|-----------------------------000-222-333-33333---|
E|-----------------------------------------11111---|

Repeat Chorus:

Last Chord:
e|-3~---|
B|-3~---|
G|-0~---|
D|-0~---|
A|-2~---|
E|-3~---|

Outro:Come too far
Play Intro then

e|-3~---|
B|-3~---|
G|-5~---|
D|-5~---|
A|-3~---|
E|------|


END===========================================================================

Learning to Breathe
Standard tuning

INTRO)
   Riff 1a (Gtr 1)          x3      Fill 1
e||---------------------------||  |---------------------------------|
B||---3-3-3-3-3-3-3-3-3---3---||  |-3-3-3-3-3-3-3-3-3-3-3-3-3-3-3-3-|
G||o--2-4-2-4-4-2-4-2-4br-2--o||  |-2-4-2-2-0-0-0-0-4-4-4-4-0-0-0-0-|
D||o--0-0-0-0-0-0-0-0-0---0--o||  |-0-0-0-0-0-0-0-0-0-0-0-0-0-0-0-0-|
A||---------------------------||  |---------------------------------|
E||---------------------------||  |---------------------------------|
|
| Riff 1b (Gtr 2 intro only)
e||---------------------------||
B||---3-3-3-3-3-3-3-3-3---3---||
G||o--2-4-2-4-4-2-4-2-4---2--o||
D||o--0-0-0-0-0-0-0-0-0---0--o||
A||---------------------------||
E||---------------------------||

Repeat Riff 1 x3
then:
Fill 2
e|---------------------------------|---------------------------------|
B|-3-3-3-3-3-3-3-3-3-3-3-3-3-3-3-3-|-3-3-3-3-3-3-3-3-3-3-3-3-3-3-3-3-|
G|-2-2-2-2-2-2-2-2-0-0-0-0-0-0-0-0-|-0-0-0-0-0-0-0-0-0-0-0-0-0-0-0-0-|
D|-0-0-0-0-0-0-0-0-0-0-0-0-0-0-0-0-|-4-4-4-4-4-4-4-4-4-4-4-4-4-4-4-4-|
A|---------------------------------|---------------------------------|
E|---------------------------------|---------------------------------|

VERSE 1  X2
| Riff 1b
e||-------------------------xx||
B||--3-3-3-3-3-3-3-3-3---3--33||
G||--2-4-2-4-4-2-4-2-4---2--00||
D||--0-0-0-0-0-0-0-0-0---0--22||
A||-------------------------33||
E||-------------------------xx||

Fill 3 (x2)
e|---------------------------------|
B|-3-3-3-3-3-3-3-3-3-3-3-3-3-3-3-3-|
G|-2-2-2-2-0-0-0-0-0-0-0-0-0-0-0-0-|
D|-0-0-0-0-0-0-0-0-4-4-4-4-0-0-0-0-|
A|-x-x-x-x-x-x-x-x-x-x-x-x-x-x-x-x-|
E|-3-3-3-3-3-3-3-3-3-3-3-3-3-3-3-3-|


BRIDGE
               C/G(x3203x)        G (320033)
So this is the way, that I say, I need you.
            Dsus (xx0232)
This is the way, this is the way that I'm


  CHORUS
 C/G  Em7  C/G  Em7   | C/G  Em7  Dsus  C/G
e|-3--2—---3—---2-----|-3—--2—---2-----3||
B|-3--2—---3—---2-----|-3—--2—---3-----3||
G|-0--0—---0—---0-----|-0—--0—---2-----0||
D|-2--3—---2—---3-----|-2—--3—---0-----2||
A|-3—-3—---3----3-----|-3—--3—---x-----3||
E|-x—-0----x—---0-----|-x—--0—---x-----x||

VERSE X2
CHORUS x2

then: x2
e|-33--xx|---------------------------------|
B|-33--33|-3-3-3-3-3-3-3-3-3-3-3-3-3-3-3-3-|
G|-00--00|-2-2-2-2-0-0-0-0-0-0-0-0-0-0-0-0-|
D|-22--22|-0-0-0-0-0-0-0-0-4-4-4-4-0-0-0-0-|
A|-22--33|-x-x-x-x-x-x-x-x-x-x-x-x-x-x-x-x-|
E|-00--00|-3-3-3-3-3-3-3-3-3-3-3-3-3-3-3-3-|


(BRIDGE 2)
 C/G  Em7  C/G  Em7   | C/G  Em7  Dsus
e|-3--2—---3—---2-----|-3—--2—---2--||
B|-3--2—---3—---2-----|-3—--2—---3--||
G|-0--0—---0—---0-----|-0—--0—---2--||
D|-2--3—---2—---3-----|-2—--3—---0--||
A|-3—-3—---3----3-----|-3—--3—---x--||
E|-x—-0----x—---0-----|-x—--0—---x--||


CHORUS
C/G  Em7  C/G  Em7   | C/G  Em7  Dsus  C/G
e|-3--2—---3—---2-----|-3—--2—---2-----3||
B|-3--2—---3—---2-----|-3—--2—---3-----3||
G|-0--0—---0—---0-----|-0—--0—---2-----0||
D|-2--3—---2—---3-----|-2—--3—---0-----2||
A|-3—-3—---3----3-----|-3—--3—---x-----3||
E|-x—-0----x—---0-----|-x—--0—---x-----x||

C/G  Em7  X3| Dsus  C/G  X2| Em7|
e|-3--2—----|-2-----3------|-2--|
B|-3--2—----|-3-----3------|-2--|
G|-0--0—----|-2-----0------|-0--|
D|-2--3—----|-0-----2------|-3--|
A|-3—-3—----|-x-----3------|-3--|
E|-x—-0-----|-x-----x------|-0--|



(repeat and fade)

END===========================================================================

Awakening
Standard tuning

Intro: guitar 1 (r= 11th fret) (*= palm mute)
e-----------------------------------------------------------------|
B-----------------------------------------------------------------|
G-----------------------444-----------------------------444-------|
D-------999-------222444xxx666464-------999-------222444xxx666464-|
A-777999xxxrrr9r9-000000000000000-777999xxxrrr9r9-000000000000000-|
E-000000000000000-----------------000000000000000-----------------|
  *************** ***************

intro: guitar 1
/e-------------------------------------------------------------------||\
|B-------------------------------------------------------------------||
|G-------444-------------444-------------444-------------444---------||
|D-222444---666464-222444---666464-222444---666464-222444---666464---||
|A-------------------------------------------------------------------||
|E-------------------------------------------------------------------||
|                                                                   |
|intro: guitar 2                                                    |
|e-000000000000000-000000000000000-000000000000000-000000000000000---||
|B-000000000000000-000000000000000-000000000000000-000000000000000---||
|G-999999999999999-666666666666666-999999999999999-666666666666666---||
|D-999999999999999-777777777777777-999999999999999-777777777777777---||
|A-777777777777777-777777777777777-777777777777777-777777777777777---||
\E-000000000000000-555555555555555-000000000000000-555555555555555---||/

verse 1: guitar 1 (repeat)
e------------------------------------------------------------------|
B------------------------------------------------------------------|
G------------------------------------------------------------------|
D-22222222------------------------22222222-------------------------|
A---------222222224444444400000000--------222222224444444400000000-|
E------------------------------------------------------------------|
  ****************************************************************
Face down with the LA curbside endings/with the ones and zeros. Downtown
was the perfect place to hide. The first star that I saw last night was a
headlight/of a man-made sky, but/man-made never made our dreams collide,
Collide.

Chorus: guitar 2 (repeat twice)
e-000000000000000-000000000000000-000000000000000-000000000000000-|
B-000000000000000-000000000000000-000000000000000-000000000000000-|
G-999999999999999-888888888888888-666666666666666-666666666666666-|
D-999999999999999-999999999999999-666666666666666-777777777777777-|
A-777777777777777-999999999999999-444444444444444-777777777777777-|
E-000000000000000-777777777777777-----------------555555555555555-|
Here we are now with the falling sky and the rain, We're awakening/Here we
are now with our desperate youth and the pain, We're awakening/Maybe it's
called ambition, you've been talking in your sleep/about a

fill: guitar 2
e-000000000000000-----------------|
B-000000000000000-----------------|
G-666666666666666-----------------|
D-666666666666666-----------------|
A-444444444444444-----------------|
E---------------------------------|
Dream, we're awakening

fill: guitar 1
/e-----------------------------------||\
|B-----------------------------------||
|G-------444-------------444---------||
|D-222444---666464-222444---666464---||
|A-----------------------------------||
|E-----------------------------------||
|                                   |
|fill: guitar 2                     |
|e-000000000000000-000000000000000---||
|B-000000000000000-000000000000000---||
|G-999999999999999-666666666666666---||
|D-999999999999999-777777777777777---||
|A-777777777777777-777777777777777---||
\E-000000000000000-555555555555555---||/

verse 1: guitar 2 (repeat)
e------------------------------------------------------------------|
B------------------------------------------------------------------|
G------------------------------------------------------------------|
D-22222222------------------------22222222-------------------------|
A---------222222224444444400000000--------222222224444444400000000-|
E------------------------------------------------------------------|
  ****************************************************************
Last week found me living for nothing but deadlines, With my dead beat sky
but, this town doesn't look the same tonight These dreams started singing
to me out of nowhere/And in all my life I don't know if I've ever felt so
alive, Alive

---REPEAT CHORUS

fill: guitar 2
e-0000000000000000~-------------0~----------0~-------------------|
B-0000000000000000~-------------0~----------0~-------------------|
G-6666666666666669~-------------7~----------6~-------------------|
D-6666666666666669~-------------7~----------7~-------------------|
A-4444444444444447~-------------5~----------7~-------------------|
E----------------0~-------------------------5~-------------------|
Dream, we're awakening

Bridge: guitar 1 (repeat over and over)
e-2-4-2-0-|
B---------|
G---------|
D---------|
A---------|
E---------|
I want to wake up kicking and screaming/I want to wake up kicking and
screaming/I want a heart that I know is beating, It's beating, I'm bleeding/
I want to wake up kicking and screaming/I want to live like I know what I'm
leaving/I want a heart that I know is beating, It's beating… it’s beating…

I'm bleeding

---REPEAT CHORUS

outro: guitar 1
/e-----------------------------------------------------------------0~-------||\
|B-----------------------------------------------------------------0~-------||
|G-------444-------------444-------------444-------------444-------1~-------||
|D-222444---666464-222444---666464-222444---666464-222444---666464-2~-------||
|A-----------------------------------------------------------------2~-------||
|E-----------------------------------------------------------------0~-------||
|                                                                          |
|outro: guitar 2                                                           |
|e-000000000000000-000000000000000-000000000000000-000000000000000-0~-------||
|B-000000000000000-000000000000000-000000000000000-000000000000000-0~-------||
|G-999999999999999-666666666666666-999999999999999-666666666666666-1~-------||
|D-999999999999999-777777777777777-999999999999999-777777777777777-2~-------||
|A-777777777777777-777777777777777-777777777777777-777777777777777-2~-------||
\E-000000000000000-555555555555555-000000000000000-555555555555555-0~-------||/


END===========================================================================

This is Your Life
Standard tuning

Intro:
E|--------|--------|--------|--------|
B|--------|--------|--------|----0---|
G|--------|----0---|--0-----|--------|
D|-------2|--2--2--|-2-----2|--2--0--|
A|--------|--------|--------|3-------|
E|--------|0------0|--------|--------|

Chords:
C#                                  A
Yesterday is a wrinkle on your forehead
C#                                    A
Yesterday is a promise that you've broken
B                 C#    B                C#
Don't close your eyes, don't close your eyes
C#                                                A
This is your life and today is all you've got now
      C#                             A
Yeah, and today is all you'll ever have
B	          C#
Don't close your eyes
B                 C#
Don't close your eyes

	       E            B              A2
This is your life, are you who you want to be
               E            B              A2
This is your life, are you who you want to be
               E            B              A2
This is your life, is it everything you dreamed that it would be
                      E                     B             C#          A
When the world was younger and you had everything to lose


C#                           A
Yesterday is a kid in the corner
C#                       A
Yesterday is dead and over

	       E            B              A2
This is your life, are you who you want to be
               E            B              A2
This is your life, are you who you want to be
               E            B              A2
This is your life, is it everything you dreamed that it would be
                      E                     B             C#          A
When the world was younger and you had everything to lose



B                  C#
Don't close your eyes
B                  C#
Don't close your eyes
B                  C#
Don't close your eyes
B                  C#
Don't close your eyes


	       E            B              A2
This is your life, are you who you want to be
	       E            B              A2
This is your life, are you who you want to be

	       E            B              A2
This is your life, are you who you want to be
	       E            B              A2
This is your life, are you who you want to be
               E            B              A2
This is your life, is it everything you dreamed it would be
                      E                    B           A2
When the world was younger and you had everything to lose

                              C#       A
And you had everything to lose

Outro is the same thing as the intro

END===========================================================================

On Fire
Standard tuning

INTRO
Guitar 1
e|-8-7--------8-7-----8-7------3-5--------------|
B|----------------------------------------------|
G|----------------------------------------------|
D|---------12-------7-------10---------5--------|
A|-----10---------5-------7--------3------------|
E|---8----------3-------5--------1--------------|
Guitar 2
e|----------------------------------------------|
B|----------------------------------------------|
G|--------------------9--------5---------9------|
D|----------------------10-9-----7-5-------10-9-|
A|----------------------------------------------|
E|----------------------------------------------|

VERSE
Guitar 1
e|-8-7--------8-7-----8-7------3-5--------------|
B|----------------------------------------------|
G|----------------------------------------------|
D|---------12-------5-------10---------5--------|
A|-----10---------5-------7--------3------------|
E|---8----------3-------5--------1--------------|

Guitar 1
e|-8-7--------8-7-----8-7------3-5--------------|
B|----------------------------------------------|
G|----------------------------------------------|
D|---------12-------5-------10---------5--------|
A|-----10---------5-------7--------3------------|
E|---8----------3-------5--------1--------------|
Guitar 2
e|----------------------------------------------|
B|----------------------------------------------|
G|--------------------9--------5---------9------|
D|----------------------10-9-----7-5-------10-9-|
A|----------------------------------------------|
E|----------------------------------------------|

PRECHORUS
Guitar 1
e|-8-7--------8-7-----8-7------3-5--------------|
B|----------------------------------------------|
G|----------------------------------------------|
D|---------12-------5-------10---------5--------|
A|-----10---------5-------7--------3------------|
E|---8----------3-------5--------1--------------|

CHORUS
Guitar 1
e|-8-7--------8-7-----8-7------3-5--------------|
B|----------------------------------------------|
G|----------------------------------------------|
D|---------12-------7-------10---------5--------|
A|-----10---------5-------7--------3------------|
E|---8----------3-------5--------1--------------|
Guitar 2
e|-8-7--------8-7-------------------------------|
B|----------------------------------------------|
G|----------------------------------------------|
D|---------12-------7-----5---------------------|
A|-----10---------5-------3---------------------|
E|---8----------3-------------------------------|

VERSE 2
Guitar 1
e|-8-7--------8-7-----8-7------3-5--------------|
B|----------------------------------------------|
G|----------------------------------------------| 2X
D|---------12-------7-------10---------5--------|
A|-----10---------5-------7--------3------------|
E|---8----------3-------5--------1--------------|

PRECHORUS 2
Guitar 1
e|-8-7--------8-7-----8-7------3-5--------------|
B|----------------------------------------------|
G|----------------------------------------------|
D|---------12-------7-------10---------5--------|
A|-----10---------5-------7--------3------------|
E|---8----------3-------5--------1--------------|

CHORUS 2
Guitar 1
e|-8-7--------8-7-----8-7------3-5--------------|
B|----------------------------------------------|
G|----------------------------------------------|
D|---------12-------7-------10---------5--------|
A|-----10---------5-------7--------3------------|
E|---8----------3-------5--------1--------------|

Guitar 1
e|-8-7--------8-7-----8-7------3-5--------------|
B|----------------------------------------------|
G|----------------------------------------------|
D|---------12-------7-------10---------5--------|
A|-----10---------5-------7--------3------------|
E|---8----------3-------5--------1--------------|
Guitar 2
e|----------------------------------0-3/5-3-1-0-|
B|------------------------------0-1-------------|
G|----------------------------2-----------------|
D|--------------------------2-------------------|
A|--------------------0-2-3---------------------|
E|----------------------------------------------|

Guitar 1
e|------------8-3--------------8-3--------------|
B|----------------------------------------------|
G|----------------------------------------------|
D|-------10---------5-------10---------5--------|
A|-----7----------3-------7--------3------------|
E|---5----------1-------5--------1--------------|
Guitar 2
e|---------------0-3/5-3-1-0-|    |-------------|
B|-----------0-1-------------|    |-3-----------|
G|---------2-----------------| 2x |-------------|
D|-------2-------------------|    |-------------|
A|-0-2-3---------------------|    |-------------|
E|---------------------------|    |-------------|

e|-7--------------------------------------------|
B|---8------8-----------------------------------|
G|-----9------9-------4-------------------------|
D|--------------10------5------5----------------|
A|------------------------7------7-0------------|
E|----------------------------------------------|

Guitar 1
e|-8-7--------8-7-----8-7------3-5--------------|
B|----------------------------------------------|
G|----------------------------------------------|
D|---------12-------7-------10---------5--------|
A|-----10---------5-------7--------3------------|
E|---8----------3-------5--------1--------------|
Guitar 2
e|---------------------------------7-7----------|
B|----------------------------------8-8---------|
G|----------------------------------------------|
D|----------------------------------------------|
A|----------------------------------------------|
E|----------------------------------------------|

e|-8-7--------8-7-----8-7------3-5--------------|
B|----------------------------------------------|
G|----------------------------------------------|
D|---------12-------7-------10---------5--------|
A|-----10---------5-------7--------3------------|
E|---8----------3-------5--------1--------------|

e|-3----|
B|------|
G|------|
D|----5-|
A|----3-|
E|------|

END===========================================================================

Only Hope
Standard tuning

Chords:
  E    B    A    C9   C#m7 G    D    Em   F#7
--0----2----0----0----4----3----2----0----2------------------|
--0----4----2----3----5----3----3----0----2------------------|
--1----4----2----0----4----0----2----0----3------------------|
--1----4----2----2----6----0----0----2----2------------------|
--2----2----0----3----4----2---------2----4------------------|
--0---------0---------4----3---------0----2------------------|

Intro:
--10-12----------10~-----------------------------|
--------------12---------------------------------|
--------12-11------------------------------------|
-------------------------------------------------|
-------------------------------------------------|
-------------------------------------------------|

-------------------------------------------------|
-------------------------------------------------|
------7-9---7-7-7--------------------------------|
----9-----9-------10-9-9-7-----------------------|
--7------------------------10-7-9-10-9-7---------|
-----------------------------------------11------|

-------------------------------------------------|
-------------------------------------------------|
------7------7-7-7-------------------------------|
----9---10-9-------10-9-9-7----------------------|
--7-------------------------10-7-9-10-9-7----7~--|
------------------------------------------11—----|

Verse 1: (4x)
-------------------------------------------------|
------3-----0------------------------------------|
----0-------------2------------------------------|
--2-------0-----0-------4------------------------|
--------------2-------2--------------------------|
--------3-----------0----------------------------|

-------------------------------------------------|
------3-------3-------3--------------------------|
----0---0---0---0---0---------4------------------|
----------------------------4--------------------|
--3---------------3-----3-2----------------------|
----------3--------------------------------------|

Chorus:
     E      B         A
So I lay my head back down,
      E       B         A          C#m7
And I lift my hands and pray to be only Yours,
  A          C#m7
I pray to be only yours,
  C9                 B
I know now You're my only hope.

Verse 1: (1x)

Verse 2:
Em        G         Bm  Em       C9 G C9 B
  Sing to me of the songs of the stars,
Em        G      Bm   Em     C9           G         C9   B
  Of Your galaxy dancing and laughing and laughing again.
Em        G             Bm  Em        C9 G C9 B
  When it feels like my dreams are so far,
Em        G         Bm  Em         C9          G     C9   B
  Sing to me of the plans that You have for me over again.

Chorus: (repeat)

Pre-Bridge: (2x)
-------------------------------------------------||
-------------------------------------------------||
----4-4---4-4---------4-4---------4-4------------||
--2-----0-------4-4-2-------5-5-0-------5-5---4-4||
--------------2-----------3-----------3-----2----||
-------------------------------------------------||

Bridge:
D                 Em
 I’ll give You my apathy,
D               Em
 I’m giving You all of me.
D           Em
 I want Your symphony,
F#7                   B
Singing in all that I am.
       A               B
At the top of my lungs,
    A              B
I’m giving it back.

Chorus: (repeat)

(Guitar 1)
Verse 1: (2x)

(Guitar 2)
Ending:
-------------------------------------------------|
-------------------------------------------------|
--7-7-7------------------------------------------|
--------10-9-9-7---------------------------------|
-----------------10-7-9-10-9-7-------------------|
-------------------------------11----------------|

-------------------------------------------------|
-------------------------------------------------|
------7-9---7-7-7--------------------------------|
----9-----9-------10-9-9-7-----------------------|
--7------------------------10-7-9-10-9-7----7~---|
-----------------------------------------11------|

END===========================================================================

Dirty Second Hands
Drop D

Intro: acoustic
e----------0----------0----------0-|
B--------3-3--------3-3--------3-3-|
G--------2-2--------2-2--------2-2-|
D-3-0-0--0-0-3-0-0--0-0-3-0-0--0-0-|
A----3----------3----------3-------|
D------0---0------0---0------0---0-|

Verse 1: acoustic (listen for strumming pattern)
e-------------------------------------------------------------0----------0-|
B-------------------------------------------------------------3--------3-3-|
G--7--9----10--12---11---9---10---9---7--9----10--12--------2-2--------2-2-|
D----------------------------------------------------3-0-0--0-0-3-0-0--0-0-|
A--5--7----8---10---9----7---8----7---5--7----8---10----3----------3-------|
D-00-00--0-0--00--0-0--0-0--00---00--00-00--0-0--00-------0---0------0---0-|
Please don’t be so naïve/You know you’re not fooling anyone/You’re not as
tough as you think/With dirty second hands, The dirty second hands

Verse 1: acoustic (listen for strumming pattern)
e-------------------------------------------------------------0----------0-|
B-------------------------------------------------------------3--------3-3-|
G--7--9----10--12---11---9---10---9---7--9----10--12--------2-2--------2-2-|
D----------------------------------------------------3-0-0--0-0-3-0-0--0-0-|
A--5--7----8---10---9----7---8----7---5--7----8---10----3----------3-------|
D-00-00--0-0--00--0-0--0-0--00---00--00-00--0-0--00-------0---0------0---0-|
Can’t get nothing for free/It becomes so predictable/You start fighting to
breathe/The dirty second hands, Your dirty second hands

        (those are tens elevens and twelves)
chorus: Guitar 1          REPEAT to here|           (bend hard and slow)
/e------------------------------------------------|-------------------------||\
|B------------------------------------------------|-6b----------------------||
|G-1010---1010------------------------------------|-5b----------------------||
|D-10109-910109-9-101011111212--------------------|-------------------------||
|A-8-8-9-98-8-9-9-101011111212--------------------|-------------------------||
|D-----9-9----9-9-101011111212--------------------|-------------------------||
|                                       |         |                        |
|chorus: acoustic         REPEAT to here|         |                        |
|e------------------------------0----------0------|-------------------------||
|B------------------------------3----------3------|-------------------------||
|G----------------------------2-2--------2-2------|-------------------------||
|D----------------------------0-0-4-0-0--0-0-4-0-0|-------------------------||
|A-----------------------------------4----------4-|-------------------------||
\D----------------------------0-0------0---0------|-------------------------||/
Here’s the face of everything that breaks you down/Now you face the face of
everything that breaks you down

Verse 2: guitar 1
/e--------------------------------------------------------------------------||\
|B--------------------------------------------------------------------------||
|G--7--9---10--12---11--9---10---9---7--9----10--12-------------------------||
|D--------------------------------------------------------------------------||
|A--5--7---8---10---9---7---8----7---5--7----8---10-------------------------||
|D-00-00-0-0--00--0-0-0-0--00---00--00-00--0-0--00--------------------------||
|                                                                          |
|Verse 2: acoustic                                                         |
|e-----------------------------------------------------------0----------0---||
|B-----------------------------------------------------------3--------3-3---||
|G--7--9---10--12---11--9---10---9---7--9----10--12--------2-2--------2-2---||
|D--------------------------------------------------3-0-0--0-0-3-0-0--0-0---||
|A--5--7---8---10---9---7---8----7---5--7----8---10----3----------3---------||
\D-00-00-0-0--00--0-0-0-0--00---00--00-00--0-0--00-------0---0------0---0---||/
With an army of me/we invent our own enemies/Man verses machine/and the
dirty second hands, the dirty second hands

Verse 2: guitar 1
/e--------------------------------------------------------------------------||\
|B--------------------------------------------------------------------------||
|G--7--9---10--12---11--9---10---9---7--9----10--12-------------------------||
|D--------------------------------------------------------------------------||
|A--5--7---8---10---9---7---8----7---5--7----8---10-------------------------||
|D-00-00-0-0--00--0-0-0-0--00---00--00-00--0-0--00--------------------------||
|                                                                          |
|Verse 2: acoustic                                                         |
|e-----------------------------------------------------------0----------0---||
|B-----------------------------------------------------------3--------3-3---||
|G--7--9---10--12---11--9---10---9---7--9----10--12--------2-2--------2-2---||
|D--------------------------------------------------3-0-0--0-0-3-0-0--0-0---||
|A--5--7---8---10---9---7---8----7---5--7----8---10----3----------3---------||
\D-00-00-0-0--00--0-0-0-0--00---00--00-00--0-0--00-------0---0------0---0---||/
In the land of the free/and the home of the remedy/The old clock is a thief/
With dirty second hands, with dirty second hands

---REPEAT CHORUS (instead of bending with the electric, continue with the
acoustic riff)

Bridge: continuing with the acoustic riff all the way through:
Are you really as tough as you think? You blink and you’re over the brink/
You bleed but you’re blood runs pink/With dirty second hands, dirty second
hands/You’re not quite as tough as you thought/You bought the American
rot/The very seed that you thought you shot/With dirty second hands, dirty
second hands/You might be right/The fight might be right inside you/The
blind leading the lied to/Tonight maybe you bind you with dirty second hands

---REPEAT CHORUS TWICE

end with the acoustic riff

END===========================================================================

Love is the Movement
Standard tuning

  Intro(4x)
e|-------------------------|
B|-------------------------|
G|---0---0---2---2---4---2-|
D|--0-0-0-0-4-4-4-4-4-4-4--|
A|-------------------------|
E|-3-----------------------|
  Then...
e|--------------------------------------------------------|
B|---3-3-------------3--3-3------3-------------3--3-3-----|
G|--2---2-2-0-0-2-2---2-------2-2-2-2-0-0-2-2---2-------2-|
D|-0-----3----------3--3-3-0-3-0---3----------3--3-3-0-3--|
A|-------------------------------------------1------------|
E|--------------------------------------------------------|
  Verse 1(3x)
e|-------------------------------------------------|
B|---3-3-----1-1-----------6--3--3--3----5--5--5---|
G|--2---2---0------2-0-2-------2--2--2----5--5--5--|
D|-0-----2-3----2-3-----5-7--3--3--3--3-5--5--5--5-|
A|--------------------------1----------3-----------|
E|-------------------------------------------------|
  A day in LA/And millions of faces/Looking for a movement/Cause every things stuck/And
things frozen/And everyones broken/And nobody moves/And everyone's scared/That the
will never come
  Pre-Chorus
e|----------------|
B|-0--3~--0--3~---|
G|-0--2~--0--2~---|
D|----------------|
A|----------------|
E|----------------|
  This an incompletion/Stuck in a line
  Chorus(Gtr. 1)
e|-----------------------------------------------|
B|-----------------------------------------------|
G|-----7------7----2-2-2-2-2-2----------5555-----|
D|---7-7----7-7----3-3-3-3-3-3----5-5-5-55557777-|
A|-5-5-5--5-5-5--1-1-1-1-1-1-1----5-5-5-33337777-|
E|------------------------------3-3-3-3-----5555-|
  Gtr. 2
e|--------------------------------------------------------------|
B|--------------------------------------------------------------|
G|-12/14-12/14-12--14-14-12-12-12-14--14-14-1212121212121212999-|
D|--------------------------------14----------------------------|
A|-10/12-10/12-10--12-12-10-10-10-12--12-12-1010101010101010777-|
E|--------------------------------------------------------------|
  Love is a movement/Love is a revolution/This is redemption/We don't have to slow right now!
  Post-Chorus
e|-------------------------13-----13----------------------------|
B|-10-13-11-----------10-11--10-10--11-10-8--8-10-13-13-10-10-8-|
G|---------10-10-10-12---------------------10-------------------|
D|--------------------------------------------------------------|
A|--------------------------------------------------------------|
E|--------------------------------------------------------------|
  Verse 2
e|----------------------1-------------------------|
B|---------------------------3-----3-----5-----5--|
G|-------------0-2-2-0-2-2------------------------|
D|--------0-2-3---3-3-----------------------------|
A|-5-3-5-3----------------1-1-1-1-1-1-3-3-3-3-3-3-|
E|------------------------------------------------|
  The stars are aligned/They dance to the music of the deepest emotion/And all of the
is singing in tune/As the heavens are caving in/Mysterious ways why God gave His life/To
inside my soul
  Pre-Chorus
e|----------------|
B|-0--3~--0--3~---|
G|-0--2~--0--2~---|
D|----------------|
A|----------------|
E|----------------|
  It's bigger than cold religion/It's bigger than life
   Chorus
   Bridge(2x)
e|-------------------------------------|
B|-------------------------------------|
G|----------------------------55555555-|
D|-88888888\33333333/88888888-55555555-|
A|-88888888\33333333/88888888-33333333-|
E|-66666666\11111111/66666666----------|
  Intro
  Pre-Chorus
  Chorus(2x)

END===========================================================================

Company Car
Standard tuning

Intro 2x
E|----------------------------------------------------------|
B|----------------------------------------------------------|
G|-9----9-9-9----9----9-9-9-9----9----9-9-9----9----9-9-9-9-|
D|----------------------------------------------------------|
A|-7----7-7-7----7----7-7-7-7----7----7-7-7----7----7-7-7-7-|
E|----------------------------------------------------------|

Verse
E|----------------------------------------------------------|
B|----------------------------------------------------------|
G|-9----9-9-9----9----9-9-9-9----9----9-9-9----9----9-9-9-9-|
D|----------------------------------------------------------|
A|-7----7-7-7----7----7-7-7-7----7----7-7-7----7----7-7-7-7-|
E|----------------------------------------------------------|

E|------------------|
B|------------------|
G|------------------|
D|-7----2----7----9-|
A|-7----2----7----9-|
E|-5----0----5----7-|

E|----------------------------------------------------------|
B|----------------------------------------------------------|
G|-9----9-9-9----9----9-9-9-9----9----9-9-9----9----9-9-9-9-|
D|----------------------------------------------------------|
A|-7----7-7-7----7----7-7-7-7----7----7-7-7----7----7-7-7-7-|
E|----------------------------------------------------------|

E|------------------|
B|------------------|
G|------------------|
D|-7----2----7----9-|
A|-7----2----7----9-|
E|-5----0----5----7-|

“As time rolls by…”

E|----------------------------------------------------------------|
B|----------------------------------------------------------------|
G|----------------------------------------------------------------|
D|11-11-11---7-7-7----4-4-4----9-9-9----6-6-6---11-11-11----9-9-9-|
A|11-11-11---7-7-7----4-4-4----9-9-9----6-6-6---11-11-11----9-9-9-|
E|-9--9--9---5-5-5----2-2-2----7-7-7----4-4-4----9--9--9----7-7-7-|

E|-----------------|
B|-----------------|
G|-----------------|
D|-9-9-9-9-9-9-9-9-|
A|-9-9-9-9-9-9-9-9-|
E|-7-7-7-7-7-7-7-7-|

Chorus
E|-----------------------------------------------------------|
B|-----------------------------------------------------------|
G|-9----9-9-9-9----------------------------------------------|
D|-9----9-9-9-9-9----9-9-9-9-10----5-6-7--s-2----2-2-2-2---6-|
A|-7----7-7-7-7-9----9-9-9-9-10----5-6-7--s-2----2-2-2-2---6-|
E|--------------7----7-7-7-7-8-----3-4-5--s-0----0-0-0-0---4-|

E|-------------------------|
B|-------------------------|
G|-------------------------|
D|-6-6-6-6----7----7-7-7-7-|
A|-6-6-6-6----7----7-7-7-7-|
E|-4-4-4-4----5----5-5-5-5-|

E|----------|
B|----------|
G|----------|
D|-10-10-10-|
A|-10-10-10-|
E|-8--8--8--|

E|----------------------------------------------------------|
B|----------------------------------------------------------|
G|-9----9-9-9-9---------------------------------------------|
D|-9----9-9-9-9-9----9-9-9-9----11----11-11----7----7-7---2-|
A|-7----7-7-7-7-9----9-9-9-9----11----11-11----7----7-7---2-|
E|--------------7----7-7-7-7----9------9---9---5----5-5---0-|

E|-------------------------|
B|-------------------------|
G|-------------------------|
D|-0-0-0-0----2----2-2-2-2-|
A|-2-2-2-2----4----4-4-4-4-|
E|-2-2-2-2----4----4-4-4-4-|

E|-------------------|
B|-------------------|
G|-------------------|
D|-7----7-7-7-7----9-|
A|-7----7-7-7-7----9-|
E|-5----5-5-5-5----7-|

Verse

“I pass go…”

E|-------------------------------------------------------|
B|-------------------------------------------------------|
G|-------------------------------------------------------|
D|11-11-11---7-7-7----4-4-4----9-9-9----6-6-6---11-11-11-|
A|11-11-11---7-7-7----4-4-4----9-9-9----6-6-6---11-11-11-|
E|-9--9--9---5-5-5----2-2-2----7-7-7----4-4-4----9--9--9-|

E|--------------------------|
B|--------------------------|
G|--------------------------|
D|-9-9-9----9-9-9-9-9-9-9-9-|
A|-9-9-9----9-9-9-9-9-9-9-9-|
E|-7-7-7----7-7-7-7-7-7-7-7-|

Chorus

Bridge

E|--------------------------------------------------------------------|
B|--------------------------------------------------------------------|
G|--------------------------------------------------------------------|
D|-9-s-11-s----8-s-10-s---7-s-9-s----6-s-8-s----7----2----7----4----7-|
A|-9-s-11-s----8-s-10-s---7-s-9-s----6-s-8-s----7----2----7----4----7-|
E|-7-s-9--s----6-s-8-s----5-s-7-s----4-s-6-s----5----0----5----2----5-|

Verse
(He does something on the bass for the first half of the verse)

“Mike was right…”

E|----------------------------------------------------------|
B|----------------------------------------------------------|
G|-9----9-9-9----9----9-9-9-9----9----9-9-9----9----9-9-9-9-|
D|----------------------------------------------------------|
A|-7----7-7-7----7----7-7-7-7----7----7-7-7----7----7-7-7-7-|
E|----------------------------------------------------------|

E|------------------|
B|------------------|
G|------------------|
D|-7----2----7----9-|
A|-7----2----7----9-|
E|-5----0----5----7-|

E|----------------------------------------------------------------|
B|----------------------------------------------------------------|
G|----------------------------------------------------------------|
D|11-11-11---7-7-7----4-4-4----9-9-9----6-6-6---11-11-11----9-9-9-|
A|11-11-11---7-7-7----4-4-4----9-9-9----6-6-6---11-11-11----9-9-9-|
E|-9--9-9----5-5-5----2-2-2----7-7-7----4-4-4----9--9--9----7-7-7-|

E|-----------------|
B|-----------------|
G|-----------------|
D|-9-9-9-9-9-9-9-9-|
A|-9-9-9-9-9-9-9-9-|
E|-7-7-7-7-7-7-7-7-|

E|-----------------------------------------------------------|
B|-----------------------------------------------------------|
G|-9----9-9-9-9----------------------------------------------|
D|-9----9-9-9-9-9----9-9-9-9-10----5-6-7----2----2-2-2-2---6-|
A|-7----7-7-7-7-9----9-9-9-9-10----5-6-7----2----2-2-2-2---6-|
E|--------------7----7-7-7-7-8-----3-4-5----0----0-0-0-0---4-|

E|-------------------------|
B|-------------------------|
G|-------------------------|
D|-6-6-6-6----7----7-7-7-7-|
A|-6-6-6-6----7----7-7-7-7-|
E|-4-4-4-4----5----5-5-5-5-|

E|----------|
B|----------|
G|----------|
D|-10-10-10-|
A|-10-10-10-|
E|-8---8--8-|

E|-----------------------------------------------------------|
B|-----------------------------------------------------------|
G|-9----9-9-9-9----------------------------------------------|
D|-9----9-9-9-9-9----9-9-9-9----11----11-11----7----7-7----2-|
A|-7----7-7-7-7-9----9-9-9-9----11----11-11----7----7-7----2-|
E|--------------7----7-7-7-7----9-----9---9----5----5-5----0-|

E|-------------------------|
B|-------------------------|
G|-------------------------|
D|-2-2-2-2----4----4-4-4-4-|
A|-2-2-2-2----4----4-4-4-4-|
E|-0-0-0-0----2----2-2-2-2-|

E|-------------------|
B|-------------------|
G|-------------------|
D|-7----7-7-7-7----9-|
A|-7----7-7-7-7----9-|
E|-5----5-5-5-5----7-|
3x
E|--------------------------------------------------------------|
B|--------------------------------------------------------------|
G|--------------------------------------------------------------|
D|-2----2-2-2-2----4----4-4-4-4----7----7-7-7-7----9----9-9-9-9-|
A|-2----2-2-2-2----4----4-4-4-4----7----7-7-7-7----9----9-9-9-9-|
E|-0----0-0-0-0----2----2-2-2-2----5----5-5-5-5----7----7-7-7-7-|

E|---|
B|---|
G|---|
D|-2-|
A|-2-|
E|-0-|

END===========================================================================

 Lonely Nation
Standard tuning

INTRO/VERSE 1: The intro is mostly piano and drums but theres an acoustic part stuck in
too. It might be hard to hear but once you hear it you can find the strumming if this
exact. This part is also played in the second half of the 1st verse.
e|---------------------|
B|---------------------|
G|---7/9-99997/9--7----|
D|---x/x-xxxxx/x--x----|
A|---5/7-77775/7--5----|
D|---------------------|


CHORUS: This is the fun part. Fill er' up with plenty of distortion.
"Singing without tongues," and 2nd time "Desperate we are young,"
e|----------------------|
B|----------------------|
G|-----7----7~----------|
D|--5~-7----7~----------|
A|--5~---x55------------|
D|--5~------------------|
"Screaming without lungs," and 2nd time "Seperate we are one,"
e|--------------------------|
B|--------------------------|
G|-----11--------11/12------|
D|--0~--x---077---x/x-------|
A|--0~--9---077---9/10------|
D|--0~------077-------------|
"I want more than my desperation"(NOTE:10's and 12's not 1's and 2's)
e|------------------------------------------------------|
B-------------------------------------------------------|
G|---------12~----------12~---------12~-----------------|
D|--x1010--x~----x1010--x~---x1010--x~---x10101010/12---|
A|--x1010--10~---x1010--10~--x1010--10~--x10101010/12---|
D|--x1010--------x1010-------x1010-------x10101010/12---|


INTERLUDE: This would be the part after the chorus when Jon sings "whooooa, whoaoooa..."
played quietly here and the when the verse comes its at full volume.
e|---------------------------------|
B|---------------------------------|
G|--xx7-999---11-99-12-999---------|
D|--xx7-999----x-xx--x-xxx---------|
A|--xx5-777----9-77-10-777---------|
D|---------------------------------|

VERSE 2: This verse has two parts to it, the 1st goes with the 1st two lines and the 2nd
is played on the last two lines and is once again the acoustic part that goes with the
The electric part is the same part that is in the interlude right before the verse. If
you listen to the song you can hear the exact muting and stuff like that to get it perfect.
e|---------------------------------|
B|---------------------------------|
G|--xx7-999---11-99-12-999---------|
D|--xx7-999----x-xx--x-xxx---------|
A|--xx5-777----9-77-10-777---------|
D|---------------------------------|


BRIDGE: Right after the second chorus (these are 12's, and 19's and stuff, not 1's and
or 1's and 4's)
e|------------------------------------------------------------|
B|------------------------------------------------------------|
G|--121212-141414-161616-1414---1212-1616--2121--191919-------|
D|---x-x-x--x-x-x--x-x-x--x-x----x-x--x-x---x-x---x-x-x-------|
A|--101010-121212-141414-1212---1010-1414--1919--171717-------|
D|------------------------------------------------------------|
"Lonely, lonely..."
e|-------------------------------|
B|-------------------------------|
G|-------------------------------|
D|--xxxx-2222-xxxx--2222-xxxx----|
A|--xxxx-2222-xxxx--2222-xxxx----|
D|--xxxx-0000-xxxx--0000-xxxx----|
"WHOA!"
e|---------------------------------------------------|
B|---------------------------------------------------|
G|---------------------------------------------------|
D|-0-2--0-4-0---0-2-0--0-4555---0-2-5-4---0-2-4555---|
A|-0-2--0-4-0---0-2-0--0-4555---0-2-5-4---0-2-4555---|
D|-0-2--0-4-0---0-2-0--0-4555---0-2-5-4---0-2-4555---|
This next guitar part is the slower part which goes "I'm tired of feelin low..."
with these notes and play this till next Chorus.
e|--15~~~---14--15~--14---------|
B|---------------------15~~-----|
G|------------------------------|
D|------------------------------|
A|------------------------------|
D|------------------------------|

After you play through the entire chorus once, there's outro and Jon just keeps singing
Want more than a Lonely Nation, want more than a Lonely Nation..." During this part
parts from the bridge are used. They are played right after the chorus and at the same 
time. End on:
e|--15~~~---14--15~--14---------|                 e|--15~~~---|
B|---------------------15~~-----|                 B|----------|
G|------------------------------|                 G|----------|
D|------------------------------|                 D|----------|
A|------------------------------|                 A|----------|
D|------------------------------|                 D|----------|
This guitar plays this 2x,
e|------------------------------|
B|------------------------------|
G|------------------------------|
D|-0-2--0-4-0---0-2-0--0-4555---|
A|-0-2--0-4-0---0-2-0--0-4555---|
D|-0-2--0-4-0---0-2-0--0-4555---|
Then goes to this.          End on:
e|------------------------||-------|
B|------------------------||-------|
G|------------------------||-------|
D|---0-2-5-4---0-2-4555---||-5~~~--|
A|---0-2-5-4---0-2-4555---||-5~~~--|
D|---0-2-5-4---0-2-4555---||-5~~~--|

END===========================================================================

The Shadow Proves the Sunshine
standard tuning

Intro   (play as many times as you want)
E|---------------------|
B|---------------------|
G|---99999999-99999999-|
D|---99999999-99999999-|
A|---77777777-77777777-|
E|---------------------|

1st Verse:
Sunshine won't you be my mother?
E|---------------------------------------|
B|---------------------------------------|
G|---99999999-88888888-66666666-99999999-|
D|---99999999-99999999-66666666-99999999-|
A|---77777777-99999999-44444444-99999999-|
E|------------77777777----------77777777-|

Sunshine come and help me sing
E|---------------------------------------|
B|---------------------------------------|
G|---99999999-88888888-66666666-88888888-|
D|---77777777-99999999-66666666-99999999-|
A|------------99999999-44444444-99999999-|
E|------------77777777----------77777777-|

My heart is darker than these oceans
E|---------------------------------------|
B|---------------------------------------|
G|---99999999-88888888-66666666-99999999-|
D|---99999999-99999999-66666666-99999999-|
A|---77777777-99999999-44444444-99999999-|
E|------------77777777----------77777777-|

My heart is frozen underneath
E|---------------------------------------|
B|---------------------------------------|
G|---99999999-88888888-66666666-88888888-|
D|---77777777-99999999-66666666-99999999-|
A|------------99999999-44444444-99999999-|
E|------------77777777----------77777777-|


Chorus:
We are crooked souls trying to stay up straight, dry eyes in the pouring rain where
E|---------------------------------------|
B|---------------------------------------|
G|---99999999-88888888-66666666-99999999-|
D|---99999999-99999999-66666666-99999999-|
A|---77777777-99999999-44444444-99999999-|
E|------------77777777----------77777777-|

The shadow proves the sunshine, the shadow proves the sunshine
E|---------------------------------------|
B|---------------------------------------|
G|---99999999-88888888-99999999-88888888-|
D|---77777777-99999999-77777777-99999999-|
A|------------99999999----------99999999-|
E|------------77777777----------77777777-|

Two scared little runaways, hold fast to the break of daylight where
E|---------------------------------------|
B|---------------------------------------|
G|---99999999-88888888-66666666-99999999-|
D|---99999999-99999999-66666666-99999999-|
A|---77777777-99999999-44444444-99999999-|
E|------------77777777----------77777777-|

The shadow proves the sunshine, the shadow proves the sunshine
E|---------------------------------------|
B|---------------------------------------|
G|---99999999-88888888-99999999-88888888-|
D|---77777777-99999999-77777777-99999999-|
A|------------99999999----------99999999-|
E|------------77777777----------77777777-|


2nd verse and remaining chorus are the same as the above listed


(The “yeah yeah, shine on me” parts are just a repetition of this
E|---------------------------------------|
B|---------------------------------------|
G|---99999999-88888888-66666666-99999999-|
D|---99999999-99999999-66666666-99999999-|
A|---77777777-99999999-44444444-99999999-|
E|------------77777777----------77777777-|

(End on)
E|-----|
B|-----|
G|---9-|
D|---9-|
A|---7-|
E|-----|

END===========================================================================
24
standard tuning

Verse 1
“twenty-four oceans…”
e|-----------------------------------------------------------------------|
B|---0--0---0--0---0--0---0--0--0-0--0-0--0-0--0-0---0--0---0--0---0--0--|
G|---0--0---0--0---0--0---0--0--0-0--0-0--0-0--0-0---0--0---0--0---0--0--|
D|---7--7---9--9---7--7---9--9--7-7--9-9--7-7--9-9---9--9--10-10---9--9--|
A|--10-10--10-10--10-10--10-10--x-x--x-x--x-x--x-x---x--x---x--x---x--x--|
E|------------------------------8-8--8-8--8-8--8-8--10-10--10-10--10-10--|

e|-------------------------------------|
B|---0--0---0--0---0--0---0--0---0--0--|
G|---0--0---0--0---0--0---0--0---0--0--|
D|--10-10---7--7---9--9---7--7---9--9--|
A|---x--x--10-10--10-10--10-10--10-10--|
E|--10-10------------------------------|

“twenty-four finds me…”
e|-----------------------------------------------------------------------|
B|---0--0---0--0---0--0---0--0--0-0--0-0--0-0--0-0---0--0---0--0---0--0--|
G|---0--0---0--0---0--0---0--0--0-0--0-0--0-0--0-0---0--0---0--0---0--0--|
D|---7--7---9--9---7--7---9--9--7-7--9-9--7-7--9-9---9--9--10-10---9--9--|
A|--10-10--10-10--10-10--10-10--x-x--x-x--x-x--x-x---x--x---x--x---x--x--|
E|---0--0---0--0---0--0---0--0--8-8--8-8--8-8--8-8--10-10--10-10--10-10--|

e|----------------------------|
B|---0--0--0-0--0-0--3-3-3-3--|
G|---0--0--2-2--4-4--2-2-2-2--|
D|--10-10--0-0--0-0--0-0-0-0--|
A|---x--x--x-x--x-x--x-x-x-x--|
E|--10-10--3-3--3-3--2-2-2-2--|

Verse 2 - 2x (on 2x hold out G chord)
“thought it was, twenty-four hours ago…”
e|--0-0--0-0--0-0--0-0--0-0--0-0--0-0--0-0--------------------|
B|--3-3--3-3--3-3--3-3--3-3--3-3--3-3--3-3--3-3-3-3--3-3-3-3--|
G|--2-2--4-4--2-2--4-4--2-2--4-4--2-2--4-4--2-2-2-2--2-2-2-2--|
D|--x-x--x-x--x-x--x-x--x-x--x-x--x-x--x-x--0-0-0-0--0-0-0-0--|
A|--2-2--2-2--2-2--2-2--3-3--3-3--3-3--3-3--x-x-x-x--x-x-x-x--|
E|--0-0--0-0--0-0--0-0----------------------3-3-3-3--2-2-2-2--|

e|--3-3-3-3-----------|
B|--3-3-3-3--3-3-3-3--|
G|--0-0-0-0--2-2-2-2--|
D|--0-0-0-0--0-0-0-0--|
A|--x-x-x-x--x-x-x-x--|
E|--3-3-3-3--2-2-2-2--|

Verse 3
“there's twenty-four reasons…”
e|--3--3--3--3---0--0--0--0---0--0---0--0---3--3---------|
B|--3--3--3--3---3--3--3--3---3--3---3--3---3--3---3--3--|
G|--0--0--0--0---0--0--0--0---2--2---2--2---0--0---2--2--|
D|--0--0--0--0---x--x--x--x---0--0---0--0---0--0---0--0--|
A|--x--x--x--x---3--3--3--3---x--x---x--x---x--x---x--x--|
E|--3--3--3--3----------------3--3---2--2---3--3---2--2--|

Pre-Chorus
“see, I'm not copping out…”
e|----------------------------------------------------------|
B|----------------------------------------------------------|
G|--12-12--11-11--12-12--11-11--12-12--11-11--12-12--11-11--|
D|---x--x---x--x---x--x---x--x---x--x--10-10---x--x--10-10--|
A|--10-10---9--9--10-10---9--9--10-10---9--9--10-10---9--9--|
E|---0--0---0--0---0--0---0--0---8--8---8--8---8--8---8--8--|

“I’m not copping out…”
e|----------------------------------------------------------|
B|----------------------------------------------------------|
G|--12-12--11-11--12-12--11-11--12-12--11-11--12-12--11-11--|
D|---x--x---x--x---x--x---x--x---x--x--10-10---x--x---x--x--|
A|--10-10---9--9--10-10---9--9--10-10---9--9--10-10---9--9--|
E|--10-10--10-10--10-10--10-10---8--8---8--8--10-10--10-10--|

Chorus
“oh, oh, I am the second man…”
e|--3-3-3-3--0-0---0-0----0-0-0-0--0-0---0-0----|
B|--3-3-3-3--3-3---3-3----3-3-3-3--3-3---3-3----|
G|--0-0-0-0--4h0---4-0----0-0-0-0--4h0---4h0----|
D|--0-0-0-0--0-4p0-0-4p0--2-2-2-2--0-4p0-0-4p0--|
A|--x-x-x-x--x-x---x-x----2-2-2-2--2-2---2-2----|
E|--3-3-3-3--3-3---3-3----0-0-0-0--0-0---0-0----|

e|--0-0-0-0--0-0---0-0------------------------|
B|--3-3-3-3--3-3---3-3----3-3-3-3--3-3-3-3----|
G|--0-0-0-0--4h0---4-0----2-2-2-2--2-2-2-2----|
D|--x-x-x-x--0-4p0-0-4p0--0-0-0-0--0-0-0-0----|
A|--3-3-3-3--3-3---3-3----x-x-x-x--x-x-x-x----|
E|------------------------3-3-3-3--2-2-2-2----|

Verse 4
“twenty-four voices…”
e|------------------------------------------------------------|
B|--0-0--0-0--0-0--0-0--0-0--0-0--0-0--0-0--3-3-3-3--3-3-3-3--|
G|--2-2--4-4--2-2--4-4--2-2--4-4--2-2--4-4--2-2-2-2--2-2-2-2--|
D|--0-0--0-0--0-0--0-0--x-x--x-x--x-x--x-x--0-0-0-0--0-0-0-0--|
A|--x-x--x-x--x-x--x-x--3-3--3-3--3-3--3-3--x-x-x-x--x-x-x-x--|
E|--3-3--3-3--3-3--3-3----------------------3-3-3-3--2-2-2-2--|

e|--3-3-3-3-----------|
B|--3-3-3-3--3-3-3-3--|
G|--0-0-0-0--2-2-2-2--|
D|--0-0-0-0--0-0-0-0--|
A|--x-x-x-x--x-x-x-x--|
E|--3-3-3-3--2-2-2-2--|

“one today, centered & true…”
e|--0-0-0-0-0-0-0-0--0-0-0-0-0-0-0-0--------------------|
B|--3-3-3-3-3-3-3-3--3-3-3-3-3-3-3-3--3-3-3-3--3-3-3-3--|
G|--0-0-0-0-0-0-0-0--0-0-0-0-0-0-0-0--2-2-2-2--2-2-2-2--|
D|--2-2-2-2-2-2-2-2--2-2-2-2-2-2-2-2--0-0-0-0--0-0-0-0--|
A|--2-2-2-2-2-2-2-2--3-3-3-3-3-3-3-3--x-x-x-x--x-x-x-x--|
E|--0-0-0-0-0-0-0-0-------------------3-3-3-3--2-2-2-2--|

e|--3-3-3-3-----------|
B|--3-3-3-3--3-3-3-3--|
G|--0-0-0-0--2-2-2-2--|
D|--2-2-2-2--0-0-0-0--|
A|--3-3-3-3--x-x-x-x--|
E|-----------3-3-3-3--|

Chorus - 2x

Verse 5
“I wanna see miracles…”
e|--3--3--3--3---0--0--0--0---0--0---0--0-----------------------|
B|--3--3--3--3---3--3--3--3---3--3---3--3---0-0--0-0--0-0--0-0--|
G|--0--0--0--0---0--0--0--0---2--2---2--2---2-2--4-4--2-2--4-4--|
D|--0--0--0--0---x--x--x--x---0--0---0--0---0-0--0-0--0-0--0-0--|
A|--x--x--x--x---2--2--2--2---x--x---x--x---x-x--x-x--x-x--x-x--|
E|--3--3--3--3---0--0--0--0---3--3---2--2---3-3--3-3--3-3--3-3--|

e|--0-0-0-0-0-0-0-0--0-0-0-0-0-0-0-0--------------------|
B|--3-3-3-3-3-3-3-3--3-3-3-3-3-3-3-3--3-3-3-3--3-3-3-3--|
G|--0-0-0-0-0-0-0-0--0-0-0-0-0-0-0-0--2-2-2-2--2-2-2-2--|
D|--2-2-2-2-2-2-2-2--2-2-2-2-2-2-2-2--0-0-0-0--0-0-0-0--|
A|--2-2-2-2-2-2-2-2--3-3-3-3-3-3-3-3--x-x-x-x--x-x-x-x--|
E|--0-0-0-0-0-0-0-0-------------------3-3-3-3--2-2-2-2--|

e|--3-3-3-3-----------|
B|--3-3-3-3--3-3-3-3--|
G|--0-0-0-0--2-2-2-2--|
D|--2-2-2-2--0-0-0-0--|
A|--3-3-3-3--x-x-x-x--|
E|-----------3-3-3-3--|

Chorus - 3x (fade out)

*Chords Used
   Gsus2  G  Am9/C  G/C  G/D  Gadd11/D  Emadd11  Em  G*  Gsus2*  D/F#
e|-------------------------------------------------------------------|
B|---0----0----0-----0----0-------0--------0------0--0-----0------3--|
G|---0----0----0-----0----0-------0--------0------0--2-----4------2--|
D|---7----9----7-----9----9------10--------7------9--0-----0------0--|
A|--10---10----x-----x----x-------x-------10-----10--x-----x------x--|
E|-------------8-----8---10------10--------0------0--3-----3------2--|

  E7sus4  E5  C6add9(no3)  A#5/C  Gsus2**  G5  Cadd9  CM9  CM13
e|---0----0-------0----------0-------------3-----0-------------|
B|---3----3-------3----------3------3------3-----3-----0----0--|
G|---2----4-------2----------4------2------0-----0-----4----2--|
D|---x----x-------x----------x------0------0-----x-----x----x--|
A|---2----2-------3----------3------x------x-----3-----3----3--|
E|---0----0-------------------------3------3-------------------|

    Em  Emadd9  C5  C(#11)  Dsus4  D  Gadd9  Gadd9*  Em7
e|----------------------------------------------------0--|
B|--------------------------------------0------0------3--|
G|--12----11----12----11-----12---11----2------4------0--|
D|---x-----x-----x----10------x----x----0------0------2--|
A|--10-----9----10-----9-----10----9----x------x------2--|
E|---0-----0-----8-----8-----10---10----3------3------0--|

END===========================================================================

The Beautiful Letdown
standard tuning

Guitar:

verse 2: guitar 1 (b= bend)
/e-----------------------------------------------------------------------||\
|B-------------0----------0~--0~-0~-------------0----------0~--0~--0~----||
|G-/9---4---6b---6--4---2~--2~------/9---4---6b---6--4---2~--2~--2~------||
|D-----------------------------------------------------------------------||
|A-----------------------------------------------------------------------||
|E-----------------------------------------------------------------------||
|                                                                       |
|verse 2: acoustic                                                      |
|e-0-0-0000-0-000-0-0-0000-0-000-0-0-0000-0-000-0-0-0000-0-000-0-0-000---||
|B-0-0-0000-0-000-0-0-0000-0-000-0-0-0000-0-000-0-0-0000-0-000-0-0-000---||
|G-1-1-1112-2-222-1-1-1112-2-222-1-1-1112-2-222-1-1-1112-2-222-1-1-111---||
|D-2-2-2222-2-222-2-2-2222-2-222-2-2-2222-2-222-2-2-2222-2-222-2-2-222---||
|A-2-2-2220-0-000-2-2-2220-0-000-2-2-2220-0-000-2-2-2220-0-000-2-2-222---||
\E-0-0-000--------0-0-000--------0-0-000--------0-0-000--------0-0-000---||/
it was a beautiful letdown when you found me here, and for once in a rare
blue moon, I see everything clear I’ll be a beautiful

verse 2: guitar 1
/e-----------------------------------------------------------------------||\
|B-------------0----------0~--0~-0~--------------------------------------||
|G-/9---4---6b---6--4---2~--2~------/9~----------------------------------||
|D-----------------------------------------------------------------------||
|A-----------------------------------------------------------------------||
|E-----------------------------------------------------------------------||
|                                                                       |
|verse 2: acoustic                                                      |
|e-0-0-0000-0-000-0-0-0000-0-000-0-0-0000-0-000-0-0-0000-0-000-0-0-000---||
|B-0-0-0000-0-000-0-0-0000-0-000-0-0-0000-0-000-0-0-0000-0-000-0-0-000---||
|G-1-1-1112-2-222-1-1-1112-2-222-1-1-1112-2-222-1-1-1112-2-222-1-1-111---||
|D-2-2-2222-2-222-2-2-2222-2-222-2-2-2222-2-222-2-2-2222-2-222-2-2-222---||
|A-2-2-2220-0-000-2-2-2220-0-000-2-2-2220-0-000-2-2-2220-0-000-2-2-222---||
\E-0-0-000--------0-0-000--------0-0-000--------0-0-000--------0-0-000---||/
letdown, that’s what I’ll forever be, and though it may cost my soul I’ll
sing for free

bridge:
still chasing our tails and the rising sun and our dark water planet still
spins in a race where no one wins and no one’s one, see

chorus: acoustic (repeat)
e-0-0-0000-0-000-0-0-0000-0-000-0-0-0000-0-000-0-0-0000-0-000-0-0-0000-0-0-|
B-0-0-0000-0-000-0-0-0000-0-000-0-0-0000-0-000-0-0-0000-0-000-0-0-0000-0-0-|
G-1-1-1112-2-222-1-1-1112-2-222-1-1-1112-2-222-1-1-1112-2-222-1-1-1112-2-2-|
D-2-2-2222-2-222-2-2-2222-2-222-2-2-2222-2-222-2-2-2222-2-222-2-2-2222-2-2-|
A-2-2-2220-0-000-2-2-2220-0-000-2-2-2220-0-000-2-2-2220-0-000-2-2-2220-0-0-|
E-0-0-000--------0-0-000--------0-0-000--------0-0-000--------0-0-000------|
I don’t belong here, I don’t belong here, I will carry a cross and a song
where I don’t belong, I don’t belong, I don’t belong here, I don’t belong
here, I’m gonna set sight and set sail for the kingdom come kingdom come,
Your kingdom come, won’t you let me down yeah, let my foolish bribe forever
let me down

bridge 2: guitar 1 (r= 11th fret)
/e------------------00000000000000000000000000000000000000000000000000---||\
|B-------------0----00000000000000000000000000000000000000000000000000---||
|G-/9---4---6b---6--4444444444444999999999999999rrrrrrrrrrrrrrr9999999---||
|D-----------------------------------------------------------------------||
|A-----------------------------------------------------------------------||
|E-----------------------------------------------------------------------||
|                                                                       |
|bridge 2: acoustic                                                     |
|e----------------0-0-0000-0-000-0-0-0000-0-000-0-0-0000-0-000-0-0-000---||
|B----------------0-0-0000-0-000-0-0-0000-0-000-0-0-0000-0-000-0-0-000---||
|G----------------1-1-1112-2-222-1-1-1112-2-222-1-1-1112-2-222-1-1-111---||
|D----------------2-2-2222-2-222-2-2-2222-2-222-2-2-2222-2-222-2-2-222---||
|A----------------2-2-2220-0-000-2-2-2220-0-000-2-2-2220-0-000-2-2-222---||
\E----------------0-0-000--------0-0-000--------0-0-000--------0-0-000---||/
ah, easy living, you’re not much like your name, easy dying, hey you look
just about the same

bridge 2: guitar 1
/e-00000000000000-------------------------------0~--------------------------||\
|B-00000000000000----------------------------0--0~--------------------------||
|G-99999999999999----------------/9---4---6b---61~--------------------------||
|D---------------5-5-5-5-7-7-7-7----------------2~--------------------------||
|A---------------5-5-5-5-7-7-7-7----------------2~--------------------------||
|E---------------3-3-3-3-5-5-5-5----------------0~--------------------------||
|                                                                          |
|bridge 2: acoustic                                                        |
|e-0-0-0000-0-000----------------0-0-0000-0-000-0~--------------------------||
|B-0-0-0000-0-000----------------0-0-0000-0-000-0~--------------------------||
|G-1-1-1112-2-222----------------1-1-1112-2-222-1~--------------------------||
|D-2-2-2222-2-2225-5-5-5-7-7-7-7-2-2-2222-2-222-2~--------------------------||
|A-2-2-2220-0-0005-5-5-5-7-7-7-7-2-2-2220-0-000-2~--------------------------||
\E-0-0-000-------3-3-3-3-5-5-5-5-0-0-000--------0~--------------------------||/
won’t you please take me off your list easy living, please come on and let
me down what a beautiful letdown painfully uncool, the church of the drop
outs, the sinners, the failures, and the fools what a beautiful letdown
are we salt in the wound?

bridge 2: acoustic (repeat) (change “r” from 11th fret to 10th fret here)
e-000000000000000000000000000000000000000000000000000000000000000000000000-|
B-9999rrrr9999rrrr9999rrrr9999rrrr9999rrrr9999rrrr9999rrrr9999rrrr9999rrrr-|
G-999999999999999999999999999999999999999999999999999999999999999999999999-|
D-999999999999999999999999999999999999999999999999999999999999999999999999-|
A-777777777777777777777777777777777777777777777777777777777777777777777777-|
E-000000000000000000000000000000000000000000000000000000000000000000000000-|
let us sing one true tune yeah, I don’t belong here I don’t belong here, I
don’t belong here feels like I don’t belong here yeah, I don’t belong here,
goes like I don’t belong here I don’t belong, won’t you let me down come on
and let me down you always let me down so glad that I’m let down yeah, come
on and let me down cause I don’t belong here oh please, wont you let me down

end on:
e-0~-----------------------------------------------------------------------|
B-0~-----------------------------------------------------------------------|
G-1~-----------------------------------------------------------------------|
D-2~-----------------------------------------------------------------------|
A-2~-----------------------------------------------------------------------|
E-0~-----------------------------------------------------------------------|

Bass:
Verse:
G|------------------------------------------------|
D|---------------0-0----2-----------------4~-2~---|
A|----------0-2-------------------0-2-------------|
E|-----0------------------0-----------------------|

pre-chorus:
G|---------------------------------------|
D|---------------1/2---------------------|
A|-----4-----------------4---------------|
E|---4---4-3-----------4---4~~--2--------|

Chorus:
G|----------------------------------------------|
D|---------------------------------2------------|
A|----------2-5-5-5-5-4---0---------------0---5-|
E|-----0-0-------------------0-0-----0-0--------|

order:
verse       x8
pre-chorus  x1
chorus      x2
verse       x4
chorus      x6
verse       x4

END===========================================================================

and thats all! the contents are at the top of the page. Thanks to all these fine
contributers and myself, I was able to put this together! Thanks again!

sovaso
comments
We did not receive enough feedback on this tab! Please rate:
print report bad tab
1 2 3 4 5
I want to post or [tab]
guest
You may want to rate the tab now too:
select rating
Please do not post tabs as comments. Select "correction" instead!