Oops, an error
Loading. Please wait.

The Early Years 1997-2000 Tab

2,537 views 1 this week
no commentswrite comment
1 2 3 4 5
excellent!
x 3
Autoscroll
+/-
esc
set tempo
stop
Contributor
Hey! There's an official Ultimate Guitar app which is ideal
for learning songs when you're away from computer. Get the app
WARNING: You are trying to view
                                    content from Ultimate-Guitar.com
                                    in an unauthorized application,
                                    which is prohibited.

                                    Please use an official Ultimate
                                    Guitar Tabs application for iPhone,
                                    iPad or Android to access legitimate
                                    chords, guitar, bass, and drum tabs
                                    from Ultimate-Guitar.com database.

                                    Type "ultimate guitar tabs" in Apple
                                    App Store's or Android Market's
                                    search to find the application.
============================================================================
1. The Legend of Chin (1997)
2. New Way to be Human (1999)
3. Learning to Breathe (2000)
============================================================================
Put together by Asa Gaston
============================================================================
NOTE: You better have alot of ink ( you printing frieks )
============================================================================
1. The Legend of Chin
============================================================================
1. Bomb
2. Chem 6a
3. Underwater
4. Edge Of My Seat
5. Home
6. Might Have Been Hur
7. Concrete Girl
8. Life And Love And Why
9. You
10. Ode To Chin
11. Don't Be There
============================================================================
Year: 1997
Tablatured by Asa Gaston
============================================================================
1. Bomb
============================================================================

Drop-D

Intro:
Bass line
G|-----------------------------
D|-----------010-----------0-1-
A|030-------1---3-030---30-----
D|---1113103---------1-2--2----

Guitar Riff Intro:
e|--------------------------------
B|-----5-------4--------5---------
G|---54-45----5-5-----54-45-------
D|--5-----5--6---6---5-----5--6--5
A|-3--------6-----6-3--------6--5-
D|---------6----------------6--5--

Verse:
Power Chords
A D# D C
A D# D F
A D# D C
A D# D F

Chorus:
F A G# G F
A G# G F

Post Chorus:
A# B C 2x

Verse again, but different chords follow:
A G# G F G
the chord before the chorus this time is
E
The ending is the same as the intro, except for it ends on power chord C

============================================================================
2. Chem 6a
============================================================================

 Intro
  G       B5        C7      D5
|-----------------|----------------------|
|-----------------|----------------------|
|-----4-0-----4-0-|-----3-0-----2h4p2p0--|
|-----------------|---------0-0-0--------|
|---------2-2-----|-3-3------------------|
|-3-3-------------|----------------------|

  G           B5        C7      D5
|---------------------|---------------||
|---------------------|---------------||
|-----4-x---x-----4-0-|-----3-0-------||
|-----x-x-x-x---------|---------7-----||
|-------x-x-x-2-2-----|-3-3-----5--5\-||
|-3-3-----------------|---------------||


   Verse
    G         B5        C7      D5
||--------------------|----------------------|
||o-------------------|----------------------|
||------4-x-x-----4-0-|-----3-0-----2h4p2p0--|
||------x-x-x---------|---------0-0-0--------|
||o-------x-x-2-2-----|-3-3------------------|
||--3-3---------------|----------------------|


  1st ending
  G           B5        C7      D5
|---------------------|----------------||
|---------------------|---------------o||
|-----4-x---x-----4-0-|-----3-0--------||
|-----x-x-x-x---------|---------7------||
|-------x-x-x-2-2-----|-3-3-----5--5\-o||
|-3-3-----------------|----------------||


  2nd ending
  G           B5                Bb
|-----------------------------|----------------------|
|-----------------------------|----------------------|
|-----4-4-4-4-4-4-4-4-4-4-4-4-|-3-3-3-3-3-3-3-3------|
|-----------------------------|-----------------7----|
|-------------2-2-2-2-2-2-2-2-|-1-1-1-1-1-1-1-1-5----|
|-3-3-3-3-3-3-----------------|----------------------|


   Chorus
    Em7       G           Em7       A7sus4
||----------------------|---------------------|
||o---3-3-3-3-3-3-3-3-3-|---3-3-3-3-3-3-3-3-3-|
||--0-0-0-0-0-0-0-0-0-0-|-0-0-0-0-0-0-0-0-0-0-|
||--2-2-2-2-2-0-0-0-0-0-|-2-2-2-2-2-2-2-2-2-2-|
||o-2-2-2-2-2-2-2-2-2-2-|-2-2-2-2-2-0-0---0-0-|
||--0---0-0---3-3---3---|-0---0-0-------------|


                         1st           2nd
  Cadd9     Em7             C9 G        C7
|-----------------------|------------||-------------|
|-3-3-3-3-3-3-3-3-3-3-3-|---3--3----o||-------------|
|-0-0-0-0-0-0-0-0-0-0-0-|---0--0-----||-3-3--3-3----|
|-2-2-2-2-0-2-2-2-2-2-2-|---2--0-----||-2-2--2-2----|
|-3-3-3-3-0-2-2-2-2-2-2-|---3--2----o||-3-3--3-3----|
|-----------0---0-0-0---|------3-----||-------------|


 Guitar Solo
|-----------|---------------|------------|------------------|
|-----------|---------------|------------|------------------|
|-/7--------|----------7b9--|-4------0-2-|-2h3--0--0h2--0---|
|-----------|---------------|------------|------------------|
|-----------|---------------|------------|------------------|
|-----------|---------------|------------|------------------|


|-----------|--------------------|---------------|---------------------|
|-----------|--------------------|---------------|---------------------|
|-/7--------|-----7-x-7-x-7-7-7/-|-/12-----12-14-|-14/15-12--12/14-12--|
|-----------|--------------------|---------------|---------------------|
|-----------|-----5-x-5-x-5-5-5/-|-/10-----10-12-|-12/13-10--10/12-10--|
|-----------|--------------------|---------------|---------------------|


|--------------------------|-------------------------------|
|-8------------------------|-------------------------------|
|-7-7-7-5-5-5h7--7-7-7-5-5-|-5h7--7-7-7-5-5-5h7--7-7-7-5-5-|
|-5-5-5-5-5-5----5-5-5-5-5-|-5----5-5-5-5-5-5----5-5-5-5-5-|
|--------------------------|-------------------------------|
|--------------------------|-------------------------------|
|
| Gtr II
|--------------------------|-------------------------------|
|-8------------------------|-------------------------------|
|-7-7-7-5-5-5h7--7---7-5-5-|-5h7--7---7-5-5-5h7--7---7-5-5-|
|-5-5-5-5-5-5----5---5-5-5-|-5----5---5-5-5-5----5---5-5-5-|
|--------------------------|-------------------------------|
|--------------------------|-------------------------------|


|----------------------------|----------------------|
|----------------------------|----------------------|
|-5h7--7-7-7-5-5-7-x-x-12-14-|-14/15-12--12/14-12---|
|-5----5-5-5-5-5-5-x-x-------|----------------------|
|------------------x-x-10-12-|-12/13-10--10/12-10---|
|----------------------------|----------------------|
|
|----------------------------|----------------------|
|-8--------------------------|----------------------|
|-7----7---7-7-7-7-7---12-14-|-14/15-12--12/14-12---|
|-5----5---5-5-5-5-5---------|----------------------|
|----------------------10-12-|-12/13-10--10/12-10---|
|----------------------------|----------------------|


   Bridge
              1st-3rd      4th
    G          C9   D5       C    D5
                          4x
||-----------|------------||-----------------|
||o----------|------3----o||------3----------|
||-----------|-0----2-----||-0----2----------|
||--0--------|-x----0-----||-x----0----------|
||o-x--------|-3---------o||-3---------------|
||--3--------|------------||-----------------|
|
|                         4x
||-----------|------------||-----------------|
||o----------|-----------o||-----------------|
||-----------|------------||-----------------|
||-----------|------------||-----------------|
||o----------|-----------o||---------/5\-----|
||-----------|------------||-----------------|


 Verse 2
  G           B5        C7      D5
|---------------------|---------------------|
|---------------------|---------------------|
|-----4-x---x-----4-0-|-----3-0-----2h4p2p0-|
|-----x-x-x-x---------|---------0-0---------|
|-------x-x-x-2-2-----|-3-3-----------------|
|-3-3-----------------|---------------------|

  G           B5        C7      D5
|---------------------|----------------|
|---------------------|----------------|
|-----4-x---x-----4-0-|-----3-0-----2--|
|-----x-x-x-x---------|---------0-0-0--|
|-------x-x-x-2-2-----|-3-3------------|
|-3-3-----------------|----------------|

  G           B5        C7      D5
|---------------------|---------------------|
|---------------------|---------------------|
|-----4-x---x-----4-0-|-----3-0-----2h4p2p0-|
|-----x-x-x-x---------|---------0-0---------|
|-------x-x-x-2-2-----|-3-3-----------------|
|-3-3-----------------|---------------------|

  G           B5                Bb              D5
|-----------------------------|-----------------------|
|-----------------------------|-----------------------|
|-----4-4-4-4-4-4-4-4-4-4-4-4-|-3-3-3-3-3-3-3-3-------|
|-----------------------------|-----------------7-----|
|-------------2-2-2-2-2-2-2-2-|-1-1-1-1-1-1-1-1-5-----|
|-3-3-3-3-3-3-----------------|-----------------------|


   Chorus 2
    Em7       G           Em7       A7sus4
||----------------------|---------------------|
||o---3-3-3-3-3-3-3-3-3-|---3-3-3-3-3-3-3-3-3-|
||--0-0-0-0-0-0-0-0-0-0-|-0-0-0-0-0-0-0-0-0-0-|
||--2-2-2-2-2-0-0-0-0-0-|-2-2-2-2-2-2-2-2-2-2-|
||o-2-2-2-2-2-2-2-2-2-2-|-2-2-2-2-2-0-0---0-0-|
||--0---0-0---3-3---3---|-0---0-0-------------|

                         1st           2nd
  Cadd9     Em7             C9 G        C7
|-----------------------|------------||------------------|
|-3-3-3-3-3-3-3-3-3-3-3-|---3--3----o||------------------|
|-0-0-0-0-0-0-0-0-0-0-0-|---0--0-----||-3-3--3-3--3-3----|
|-2-2-2-2-0-2-2-2-2-2-2-|---2--0-----||-2-2--2-2--2-2----|
|-3-3-3-3-0-2-2-2-2-2-2-|---3--2----o||-3-3--3-3--3-3----|
|-----------0---0-0-0---|------3-----||------------------|


 Outro
|-------------------------10-----|----------------------|
|------------10h12p10------------|----------------------|
|-/12--14-12----------12------12-|-12--12----12-11-9-11-|
|------12------------------------|-10--10-10------------|
|--------------------------------|----------------------|
|--------------------------------|----------------------|

|-----------------------------------|----------------------|
|-----------10h12p10----10h12p10----|----------------------|
|-12--14-12----------12----------12-|-12--12----/14-11-----|
|-----12----------------------------|-10--10-10---------12-|
|-----------------------------------|----------------------|
|-----------------------------------|----------------------|

|-----------------------------|-----------------------|
|-----10----10h12p10----15----|-----------------------|
|-12-----12----------12-12-12-|-12--12----12-11-9-11--|
|-----------------------------|-10--10-10-------------|
|-----------------------------|-----------------------|
|-----------------------------|-----------------------|

|------------------------------|----------------------|-----------||
|------10----10h12p10----15----|----------------------|-----------||
|-/12-----12----------12-12-12-|-12--12----12-11-9-11-|-12--------||
|------------------------------|-10--10-10------------|--9--------||
|------------------------------|----------------------|-----------||
|------------------------------|----------------------|-----------||

============================================================================3. Underwater
============================================================================

Intro>
e|-----------------------------------------------------
b|-----------------------------------------------------
g|---7-----7-----7-----7---7-----7-----7---------------
d|---7-----7-----7-----7---7-----7-----7---------------
a|-5-----------5---------5-----------5---------3-4-(5)-
E|-----5-7---5-----5-7-------5-7---5-----5-6-7---------

Verses>
e|-----------------------------------------------------
b|-----------------------------------------------------
g|---7-----7-----4---6---7---3---6---9---7---3---4---6-
d|---7-----7-----3---5---7---3---5---9---7---3---3---5-
a|-5---------------------------------------------------
E|-----5-7---5-3---5---7---2---5---9---7---2---3---5---

e|--------------------------------
b|--------------------------------
g|---7-----7-----7----------------
d|---7-----7-----7----------------
a|-5-----------5---------3-4-(5)--
E|-----5-7---5-----5-6-7----------


CHANNEL>
d|--9---8---7---6-
a|-(9)-(9)-(7)-(7)
E|--7---6---5---4-


  D      G
e|---| |---|
b|---| |---|
g|-7-| |-2-|
d|-7-| |-0-|
a|-5-| |---|
E|---| |-3-|

D  G  D  G
D  G  D  (E|--2--0--|)


CHORUS>
   G      D      F#/A#   Bm7     A7     G7    
e|-5-|  |-2-|    |---|  |---|  |---|  |---|
b|-5-|  |-0-|    |---|  |---|  |---|  |---|
g|-0-|  |-2-|    |---|  |-7-|  |-6-|  |-4-|
d|-0-|  |-0-|    |-8-|  |-7-|  |-5-|  |-3-|
a|---|  |---|    |-9-|  |---|  |---|  |---|
E|-3-|  |---|    |-6-|  |-7-|  |-5-|  |-3-|

G  D  G  D  G  D
(F#/A#)  Bm7
A7  G7  A7 

CHANNEL>

BREAKDOWN>   Bm  D  G x3  then  F#7

CHORUS> +
Bm7  A7  G7    
Bm7  A7  G7
D  Bm7

Intro  riff

============================================================================
4. Edge Of My Seat
============================================================================

Drop-D

Intro:
e|--------------
B|--------------
G|----------2-0-
D|-2-3-0-2-3---0
A|--------------
D|-------------- 2x
Chords for the rest of Intro:
D(open) F D E F E D F 2x

Verse:
power chords
E G D G 3x
E G A
Pre-Verse 2:
e|-------------------
B|-------2-2------22-
G|--2-2-4-4--2-2-4--4
D|-4-4------4-4------
A|-------------------
D|-------------------
power chords for this part are like so:
F# A F# A 
B C# B C#
Verse 2:
power chords again
E G D G 3x
E G A
repeat the Pre-Verse 2 part only add these power chords:
E F D
E F A G D
Chorus:
F# A F# A
B C# B C#
F# A F# A
B C# B
then play the power chords that you use for the intro

============================================================================
5. Home
============================================================================

Chords
  G G/B Cadd9 Dsus D Em7 C B2 B Am7 Cadd9* Am7/D 
e|3  3    3    3   3  0  0 2  2  0    0      0
B|3  3    3    3   2  3  1 2  4  1    3      1
G|0  0    0    2   3  0  0 4  4  0    0      2
D|0  0    2    0   0  2  2 4  4  2    2      0
A|2  2    3    x   x  2  3 2  2  0    3      x
E|3  0    x    x   x  0  3 2  2  x    x      x 
Intro
e|------------------------------------------|
B|-------------------------0----------------|
G|-------2-0--------0--------0--------------|
D|-----0--------0-7-------------------------|
A|-----------------------7---------12-----0-|
E|---3-------/7-------/8-------/10----10----|do 2x
/=slide up 
G G/B Cadd9 Dsus D 2x
       G               G/B    Cadd9   Dsus  D 
It's a long way from Miami to LA
       G               G/B         Cadd9          Dsus  D      
It's a longer way from yesterday to where I am today
       G               G/B              Cadd9   Dsus  D
It's a long way from my thoughts to what I'll say
       G                  G/B         Cadd9        Dsus  D
It's a long, long way from paradise to where I am today 
     Em7             Cadd9*
All that's in my head is in your hands 

       G                G/B            Cadd9   Dsus  D
It's a long way from the moon up to the sun
       G          G/B             Cadd9            Dsus  D
It's a longer road ahead of me the road that I've begun
G               G/B         Cadd9   Dsus  D
Stop to think of all the time I've lost
      G                   G/B            Cadd9                  
Stop to think of all the bridges that I've burned that must be
   Dsus D
crossed 
 C   B2  B   C           B2 B
Over, over, over take me over 
Chorus
  Am7                                               D   Dsus
I've been poison, I've been rain, I've been fooled again
  Am7                                              Am/D?
I've seen ashes shine like chrome, someday I'll see home
G   G/B   Cadd9   Dsus  D 
Home
G   G/B   Cadd9   Dsus  D 
Home 
strum slower
G             G/B                Cadd9   Dsus  D 
I can see the stars from way down here
G                G/B              Cadd9   Dsus  D 
But I can't fall asleep behind the wheel  
strum fast again
       G               G/B          Cadd9   Dsus  D
It's a long way from my shadows in my cave
G          G/B       Cadd9            Dsus  D    C   
Up to your reality to watch the sunlight taking over
B2 B        C             B2  B
Over, taking over, take me over 
Chorus
For the string part just do G  G/B  Cadd9  Dsus  D 4x
     Em7             Cadd9*
All that's in my head is in your hands
Em7                Cadd9*
If it's in my head it's in your hands
Em7             Cadd9*
It's in my head it's in your hands 
G  G/B  Cadd9  Dsus  D 2x
End chords (they are strange and I don?t know the names of them so just play them like that in that order.)
e|--5--7--5--3--3--3
B|--5--7--5--5--5--3 
G|--5--7--5--5--5--0
D|--7--9--7--5--0--0
A|--x--x--x--x--x--2
E|--x--x--x--x--x--3 

Extra guitar parts 
Easier way to do intro
e|------------------------------------|
B|------------------------0-----------|
G|-------2-0------2-0-------0---2-----|
D|-----0-------0--------2-----0---0---|
A|-----------2--------3-------------0-|
E|---3--------------------------------| 

Bass part for Chorus 
E|-8---7----3-----|
  I've been poison
E|-8---7----3-----|
  I've been rain
E|-8---7----3------0-5--| or E|-8---7----3------0-3-H6-|  
  I've been fooled again       I've been fooled again
E|-8---7----3-----|
  I've seen ashes 
E|-8----7----3------|
  Shine like chrome
E|-8--7---3-----0--5---| or E|-8--7---3-----0--3-H6-|
  Someday I'll see home       Someday I'll see home 
There is a guitar doing this at the end during the chords listed above
e|-------5-------------5-H7---------5-H7-P5-------------------3-|
B|-----5---5---------5------------5----------8-P5-------------3-|
G|---5-------5--7-P5---------7-P5-----------------5-5-H7-5-4--0-|
D|------------------------------------------------------------0-|
A|-0----------------------------------------------------------2-|
E|------------------------------------------------------------3-|
H=hammer on
P=pull off 

============================================================================
6. Might Have Been Hur
============================================================================

Intro (with slight distortion) note: I believe that Jon doesn't change the
distortion at all but I don't have the right amp or any dis. pedal to find 
out.
e----------------------------------------------------------
B------------------5---------------5-----------------------
G------------6~~~~---6---------6h7------------6^(6)^(6)^(6)fade out
D---------------------(6)/7\6-------6-4--------------------
A-7harm----------------------------------------------------
E----------------------------------------------------------

Verse One

F#5 E5 D5 E5* 
F#5 E5 D5 D5
E5* E5* D5 D5 /F5*Hold 

Chorus
(Guitar and bass share the riff and it's hard to tell if the guitar is playing
the bass notes too because they are octaves so I included bass so you can play
the whole thing all by yourself!) note: keep high notes short and an optional
A5 can be played at the end of the F5* E5* lick instead of hitting the A bass
note 
 Riff One              
e--------------0---------------
B----2-------------------7-----
G------------------------------   F5* E5* 
D------2---------6---------7---
A-0--0-0--0/4--4-4--4/5--5-5--5 
E------------------------------
(Repeat Riff One) 
F5* E5* F5 G5 

G------4/7\6--
D-------------
A---7---------
E-5-----------

Solo
e-----------------------------------------------------------------
B------------5-------------5--------------------------------------
G-4-(4)/6~~~--6--------6h7----------------------------------------
D----------------6/7\6------6-4--/2-------7-9-10p9--7-/9--11~~~~~-
A-----------------------------------------------------------------
E-----------------------------------------------------------------

e---------------------------------------------------------------------------
B------------------------------10--10-(10)b12r10----------------------------
G-------9--9-(9)b11r9----9h11----------------------4-4^4-2-4-6-6^(6)^(6)^(6)
D-11h12------------------------------------------7--------------------------
A---------------------------------------------------------------------------
E---------------------------------------------------------------------------

Verse Two

F#5 E5 D5 E5* B-5/10
F#5 E5 D5 D5 E5* E5* D5 D5 /F5*Hold

Chorus

(Riff One) F5* E5* (Riff One) F5* E5* F5 G5 A5 A5
F5 G5 A5 A5 F5 G5 A5 A5
F5 G5
F5 G5
F5 G5 

G------4/7\6--
D-------------
A---7---------
E-5-----------

Outro

(Riff One) F5* E5* (Riff One) F5* E5* F5 G5  
G------4/7\6-4 
D-------------
A---7--------- A(Bar form w/ B and e strings muted)
E-5-----------

BIG note: Chords with an * after their name means that the chord is to be
played on the A string not the E string.

============================================================================7. Concrete Girl
============================================================================

e--------------------------------------------------------------
B------0-h1-0------0-h1-0------0-h1-0-----------------1p0------
G--------------------------------------------------0-------2---
D--------------------------------------------------------------
A---3-----------0-----------3--------------3-3--3--------------
E------------------------------------------1-1--1--------------
 this goes for all the verse's

chorus:(distortion)
E  B  A  C
E  B  A  C
C#  Ab  A  C
C#  Ab  F  E

============================================================================
8. Life And Love And Why
============================================================================

Intro>                           Verse>
e|-----------------------------|-------------------------|
b|----3------3------3------3---|----3------3-------------|
g|---0-0----0-0----0-0----0-0--|---0-0----0-0------4---3-|
d|--4---4--4---4--4---4--4---4-|--4---4--4---4-----------|
a|-----------------------------|-2------0---------5---4--|
e|-0------3-----0-------3------|-----------------3---2---|

e|-----------------------|
b|--------------0--------|
g|----------1h2---2-1----|
d|-7---7-------------0---|
a|-----0--------------0--|
e|-7---7--4------------0-|

e|----------------------
b|-3--2-----------------
g|-2--3--4--3-----------
d|----4--5--4----0---0--
a|-2--1--5--4---2---4---
e|-------3--2--3---2----

e|-----------7-------9-------------7-------6--
b|-3--3------------------3--3-----------------
g|-4--4--4--(4)--3--(6)--4--4--4--(4)--3--(3)-
d|-4--4--5-------4-------4--4--5-------4------
a|-2--0--5-------4-------2--0--5-------4------
e|-------3-------2-------------3-------2------

e|---------------
b|------------0--
g|-2--2--1-1h2-1-
d|-0--0--2-------
a|-2--0--2-------
e|---------------

Bm  F#/A#
G  F#  G  A


CHORUS>
(D  A  Bm  G) x2
 Bm  G  Bm  G  A

Then:
(D  G  D  A) x2
Bm (7997xx)  A# (6x46xx)
A (5x44xx)   G# (4x44xx)            
G  A  G  A

CHORUS>

End- play  Intro.

============================================================================
9. You
============================================================================

Am              F    
There's always something 
       Csus       G 
in the way 
Am              F             
There's always something 
       Csus       G      
getting through 
Am              F              
but it's not me 
      Csus       G
it's You, it's You 
      Csus       G     
Am              F   
i find peace when 
      Csus       G 
i'm confused 
Am              F
i find hope when 
       Csus       G   
i'm let down 
Am              F
not in me ... me 
  Csus       G
in You 
  Csus       G
it's in you 

Am              F
i hope to lose myself 
    Csus       G  
for good 
Am              F
i hope to find it in the end 
    Csus       G  
not in me ... me 
Am              F     
in You 
Csus       G     
in You 


C               Am
it's all that i know 
C               Am               
it's all that i know 
C               Am               
it's all that i know 
Am      
in You

============================================================================
10. Ode To Chin
============================================================================

A7- 5756XX OR X0202X G#5- 466XX A5-577XXX OR X022XX A/F#-2x2200
G#- 4665XX B5- 799XXX OR X244XX Em/F#-2x2200
C#5- X466XX E5-X799XX Eb5-X688XX C5-81010XXX OR X355XX

Intro
e-----------------
b-----------------
g-9-8-7-6-5-4-3-2
D-9-8-7-6-5-4-3-2
A-8-7-6-5-4-3-2-1
E-----------------
Verse 1: 

A7          G# 
What's your direction? 
C#5                   G#5
Tell me what's wrong, tell me what's right 
A7          G#
What's your direction? 
C#5                   G#5
Think about somebody else for the night 
A7          G#
Life's more than girls
C#5                   
God's more than words 
G#5
You're more than this 
A7          G#
So what's your direction? 
G#                   B5
And where are you now? 


Chorus:

E5                   A5   B5                        A5 B5 slide E5
Grow, grow where you are, anchor your roots underneath. 
A/F#           A5     E5      Eb5    E5
Doubt your doubts and believe your beliefs.

Riff 1

e----4-----------------4-----
b------4-5p4p2p0--------4-5--
g---4----------------4-------
D-2----------------2---------
A----------------------------
E----------------------------

Verse 2:
What's your direction? 
What matters most? 
What should you know? 
What's your direction 
All that you've been 
Makes who you are now 
'Cause I've been ashamed 
I've been a fool 
You know I've backed down 
When I lose direction I pray to be found 

Chorus again

Riff

Breakdown(Kinda drum solo)
E---------
B---------
G---------
D---------
A---------
E-----12/0

Guitar solo that moves really fast
E5 A5 E5 A5 E5 A5 C5 B5

Chorus

============================================================================
11. Don't Be There
============================================================================

Main Riff:                Fill:
   E      Amaj9
d|-----0--0----------|-   -|--------------|-
A|-----0--0----------|-   -|--------------|-
F|-----1--1----------|-   -|---------5/4--|-
C|-----2--2--h4--p2--|-   -|-----4h5-5/4--|-
G|-----2--0----------|-   -|-2h3----------|-
D|-0-0-0--0----------|-   -|--------------|-

Verse:
E       Amaj9   E       Amaj9
E       B       A      (Fill)
E       Amaj9   E       Amaj9
E       B       A       C

Chorus:
C#m     G#m     A       B
C#m     G#m     A       B
E       Amaj9   E       Amaj9

Post-Chorus:
E               D
C#m             C       B
E               D
C#m             C       B       A

Bridge:
C#m     B       E       C#m
D       B       E
A       B       E       C#m
D               B       C

============================================================================
NOTE: Decent album. Probably won't go platinum, but it's ok. Those 
      of you that drewl over this album; Pick it up and start playing.
   ============================================================================
2. New Way to be Human
============================================================================
1. New Way To Be Human
2. Incomplete
3. Sooner Or Later ( Soren's Song )
4. Company Car
5. Let That Be Enough
6. Something More
7. Only Hope
8. Amy's Song
9. I Turn Everything Over
10. Under The Floor
============================================================================
Put together by Asa Gaston
============================================================================
1. New Way To Be Human
============================================================================

intro
     E
(e)----x----x----x-----------|
(B)----x----x----x-----------|
(G)--1-x--1-x--1-x-----------|
(D)--2-x--2-x--2-x-----------|
(A)--2-x--2-x--2-x--0-1-2----|
(E)--0-x--0-x--0-x-----------|
      <^for these little x's you kinda gotta slap it with your hand
        like on "don't be there", and it's in the verse too>

verse
     E   E G   G A
(e)----x-----x-----x---------|
(B)----x-----x-----x---------|
(G)--1-x-1-4-x-4-6-x-6-------|
(D)--2-x-2-5-x-5-7-x-7-------|
(A)--2-x-2-5-x-5-7-x-7-------|
(E)--0-x-0-3-x-3-5-x-5-5-6-7-|

chorus
     A G#A F    C    G G#
(e)----------------------|-------------|
(B)----------------------|-------------|
(G)-------------5-5------|-------------|
(D)--7\6/7-3-3--5-5--5-6-|-------------|
(A)--7\6/7-3-3--3-3--5-6-|-then-0-1-2--|
(E)--5\4/5-1-1-------3-4-|-------------|
                         <4x>
i couldn't figure out the parts where it gets all slow and it sounds like
synthesizersd for the prechorus and bridge but this is ok

============================================================================
2. Incomplete
============================================================================

intro/verse1
e------------------------------------------------------------|
B------------------------------------------------------------|
G------------------------------------------------------------| repeat
D------2-4-----0-----2-4-----0-----2-4-----0-----2-4-----0---|
A----------2-2-----------2-2-----------2-2-----------2-2-----|
E-12/0-------------0-------------0-------------0-------------|

pre-chorus

e-----------------------------------|
B-----------------------------------|
G-----55---------------55-4-4444444-|
D-5-5-55--2-22-22--5-5-55-4-4444444-|
A-5-5-33--2-22-22--5-5-33-2-2222222-|
E-3-3-----0-00-00--3-3--------------|

chorus

e----------------------------------|
B----------------------------------|
G-2-2-22-------------------2-2-222-|
D-2-2-22--2-2-2-2--4-4-444-2-2-222-|
A-0-0-00--2-2-2-2--4-4-444-0-0-000-|
E---------0-0-0-0--2-2-222---------|

e----------------------------------|
B----------------------------------|
G-6-66-66--------------------------|
D-6-66-66-6-66-66-7-77-77-9-999999-|
A-4-44-44-6-66-66-7-77-77-9-999999-|
E---------4-44-44-5-55-55-7-777777-|

e------------------------------------------------|
B------------------------------------------------|
G--------2------6-6-6----------------------------|
D-2-2-2--2-hold-6-6-6--6------6/7-7-777-7/9-9-99-|
A-2-2-2--0------4-4-4--6-hold-6/7-7-777-7/9-9-99-|
E-0-0-0----------------4------4/5-5-555-5/7-7-77-|

verse 2:
e----------------------------------------------------|
B----------------------------------------------------|
G----------------------------------------------------|
D---2-4-----0----2-4-----0----2-4-----0----2-4-----0-|
A-------2-2----------2-2----------2-2----------2-2---|
E-0------------0------------0------------0-----------|

e--------------------|
B---3-2-3-2-3-2-3-2--|
G---0-0-0-0-0-0-0-0--|repeat
D---2-2-2-2-2-2-2-2--|
A--------------------|
E-0------------------|

prechorus
chorus
verse1
prechorus
chorus
 bridge = just the verse 1 riff
 outro = just the verse 1 riff

============================================================================
3. Sooner Or Later ( Soren's Song )
============================================================================

Standard tuning

Intro x2  Clean Guitar
e---------------------------------------|
b---------5-----------------------------|
g--------(6)--------3--------4------4---|
d------6-------------------2------2-----|
a---4-------------4------0--------------|
e------------4-2---------------0--------|

verse is the same as the intro, play x8

Verse I:
Come back and haunt me, follow me home
Give me a motive, swallow me whole
They've said i've lost it, what could i know?
When i'm but a mockery, Im so alone

Chorus :
e-------------------------------------------------------------|
b-------------------------------------------------------------|
g------4---------------4--------------4----4------7------4----|
d----6---------------6--------------4----2------7------2------|
a--4-----4--6b---7-4-----4--6b--7-2-----0-----5-----0---------|
e-------------------------------------------------------------|
           ^(1/2 step bend)       ^(listen for timing, it's kinda tricky!)


Sooner or later
You'll find out theres a hole in the wall, yeah
sooner or later
you'll find out theres a hole in the wall


Verse II:
Today is ours, condemed to be free
Free to keep breathing, free to believe
I look to find You down on my knees
Oh God, I believe, please help me believe

Chorus

Bridge:     Distorted Guitar
e---------------------------------------------|
b---------------------------------------------|
g---9-9--------------------6-6h-7-------------|
d------9>8----9--6b------9--------------------|
a----------9--------9-8-8-----------6-7-7-----|  X2
e---------------------------------9-----------|

e------------------------------|
b------------------------------|
g------------------------------|
d---8>10--10>12--12>13--13>15--|
a---6>8---8>10---10>11--11>13--|
e------------------------------|

...away, and i lost..."
e--------------------------------------------------------------------------|
b--------------------------------------------------------------------------|
g--6-6-6-6-5-5-5-5-4-4-4-4-4-4-4-4-----------------------------------------|
d--6-6-6-6-5-5-5-5-4-4-4-4-4-4-4-4-4-4-4-4-4-4-4-4-9-9-9-9-8-8-8-8-7-7-7-7-|
a--4-4-4-4-3-3-3-3-2-2-2-2-2-2-2-2-4-4-4-4-4-4-4-4-9-9-9-9-8-8-8-8-7-7-7-7-|
e----------------------------------2-2-2-2-2-2-2-2-7-7-7-7-6-6-6-6-5-5-5-5-|

   "with dreams of shrinking, yeah" (do the dreams of shrinking part x4)
e----------------------------------------------------------------------|
b----------------------------------------------------------------------|
g----------------------------------------------------------------------|
e--7-7-7-7-2-2-2-2-2-2-2-2-6-6-6-6-6-6-6-6-----------------------------|
a--7-7-7-7-2-2-2-2-2-2-2-2-6-6-6-6-6-6-6-6-----------------------------|
e--5-5-5-5-0-o-o-o-o-o-o-o-4-4-4-4-4-4-4-4-----------------------------|

bridge lyrics:
And i gave it all away
And i lost who i am
I threw it all away
With everything to gain
And i'm taking the leap
With dreams of shrinking, yeah
Dreams of shrinking, yeah

Back to verse I again,
then an instrumental chorus
and fade out

============================================================================
4. Company Car
============================================================================

Dist 1 (hollow)
Dist 2 (full)
Dist/Trem (hollow/trem)
E* = High E power chord

Intro (Dist 1):

E* \ \/\ \ \/\/\...

Verse 1 (Dist 1):
(E*  A  E  A  B) x2

C#  A  F#  B [Kick in the dist/trem here]
G#  C#  B


Chorus (Dist 2):
E*  B  C  G/G#/A
E*  G#  A
C  E*  B
C#  A
E*  F#  A  B


Verse 2 (Dist 1):
(E*  A  E  A  B) x2

(silent)  F#  B
G#  C#  B


Bridge (Dist 1):

E|-/9\-|

E|-/8\-|

E|-/7\-|

E|-/6\-|

A  E  A  F#  A


Verse 3 (Dist1):
(silent)
E*  A  C#  B
A  E  A  B
C#  A  F#  B [Dist/Trem]
G#  C#  B

============================================================================
5. Let That Be Enough
============================================================================

Intro:
E|---------------------------------------------------------------------|
B|---------------------------------------------------------------------|
G|---1---1---1-2p1----4--4---4--------1-1-----1---1---4---4---4-6-4----|
D|-----2----------2------------2p1--------2-----2-------------2-2-2----|
A|---------0--------4--2---0------2---------0-------4---2---0----------|
E|-0--------------------------------0----------------------------------|

Verse: x4
E|---------------------------------------------------------------------|
B|---------------------------------------------------------------------|
G|---1---1---1---1---4---4---4---4-------------------------------------|
D|-----2-------2---------------2---------------------------------------|
A|---------0-------4---2---0-------------------------------------------|
E|-0-------------------------------------------------------------------|

Prechorus:
E|---------------------------------------------------------------------|
B|-----0-----0---------0-----0---------0-----0-------------------------|
G|---3---3-----2-----1---1-----2-----3---3-----2-----1---1---2---2-----|
D|---------------2---------------2---------------2-----2-------2-------|
A|---------0---------------0---------------0---------------0-----------|
E|-2---------------0---------------2---------------0-------------------|

Chorus:  () x3      then:
E|-(-----------------)-------------------------------------------------|
B|-(-----------------)-------------------------------------------------|
G|-(---4---4---4---4-)-----4---4---------------------------------------|
D|-(-----4-------2---)-------------------------------------------------|
A|-(-2-------0-------)---0---2-----------------------------------------|
E|-(-----------------)-------------------------------------------------|

Lead into verse:
E|---------------------------------------------------------------------|
B|-----0---------------------------------------------------------------|
G|---1---1---2-2p1-----4---4---4-6-4-----------------------------------|
D|-----------------2-----------2-2-2-----------------------------------|
A|---------0---------4---2---0-----------------------------------------|
E|-0-------------------------------------------------------------------|

Verse x2

2nd Prechorus:
E|---------------------------------------------------------------------|
B|-----0-----0---------0-----0---------0-----0-------0-------0---------|
G|---3---3-----2-----1---1-----2-----3---3-----2-------1-------2-------|
D|---------------2---------------2---------------2-------2-------2-----|
A|---------0---------------0---------------0---------------0-----------|
E|-2---------------0---------------2---------------0-------------------|

Chorus: Play () x3	then:
E|-(-----------------)-------------------------------------------------|
B|-(-----------------)-------------------0-----------------------------|
G|-(---4---4---4---4-)---------4---4---1---1---------------------------|
D|-(-----4-------2---)-----------4-------------------------------------|
A|-(-2-------0-------)-------2-----------------------------------------|
E|-(-----------------)---------------0---------------------------------|

Then play first chorus

Ending:
E|------------------------------------------------------------------|
B|-----0------------------------------------0-----------------------|
G|---1---1---2-2p1-----4---4---4----------1---1---2-2p1-----4---4---|
D|-----------------2-------------2//4-2-----------------2-----------|
A|---------0---------4---2---0------------------0---------4---2---0-|
E|-0------------------------------------0---------------------------|

E|---------------------------------------------------------------------|
B|-----------0---------------------------------------------------------|
G|-4---------1---------------------------------------------------------|
D|-2-2//1----2---------------------------------------------------------|
A|--------2--2---------------------------------------------------------|
E|-----------0---------------------------------------------------------|

============================================================================
6. Something More
============================================================================

B                             A	             D C#
Augustine Just woke up with a broken heart
         B                            A    D C# E
All this time He’s never been awake before
   B                               A            D C#
At thirty-one His whole world is a question mark
         B           		      A    D C#
All this time He’s never been awake before
G#	   C#	     B       A
Watching dreams that he once had
         E	            G#
Feed the flame inside his head
       C#  B       A           C#    Eb       high E
In a quiet desperation of the emptiness he says…
     			     C#              	       A                    G# A B C# Eb E
“There’s got to be something more then what I’m living for I’m crying out to
you”

2nd verse: same
Augustine All his fears keep falling out
All this time He’s never been awake before
Finding now His old dreams aren’t panning out
All this time He’s never been awake before
But he’s mad to be alive And he’s dying to be met
In a quiet desperation of the emptiness he says…
“There’s got to be something more than what I’m
living for I’m crying out to you”

high E               C#  B                            A
“Hey, I give it all away Nothing I was holding back remains
high E             C#   B                                A
Hey, I give it all away Looking for the grace of God today

Eb C# B A B C# Eb E

============================================================================
7. Only Hope
============================================================================

STANDARD TUNING (EABDGe)

CHORDS: Em - 022000     A - x02220    D    - xx0232-|
        C9 - x32030     G - 320033    C#m7 - x46454-|
        Bm - x24432     B - x24442    F#7  - 242322-|

INTRO:
    Em     G	Bm   Em          C9     G    C9    B      Em
                           |---- 1.
e||-(0)--------------0----||--------------------------0-0h2-0--|
B||*--------------3-3--0-*||-1/3-3-3-1-0--0---------4----------|
G||-----0-----4-----------||-------------0-2-0----0------------|
D||--2---2-5----5--4--(2)-||-------------------2-4--4-2---1-2--|
A||*---2-----5----2------*||-------3-----------3---------------|
E||--0-----3-----------0--||--------------3--------------------|(0)

        C9    G  C9   Bm     Em
 |---- 2.
e----------------------2-0---0--|
B-1/3-3-3-1-0-0------------4----|
G------------0-2-0---0----------|
D-----------------2-4--4-2-1-2--|
A-------3---------3-------------|
E-------------3-----------------|(0)

VERSE 1: (plucked)
Em          G             Bm Em      C9  G   C9  B
  There’s a song that’s inside of my soul,
Em         G              Bm Em         C9       G     C9    B
  It’s the one that I’ve tried to write over and over again.
Em     G           Bm Em    C9   G   C9  B
  I’m awake in the infinite cold,
Em        G          Bm Em    C9       G     C9   B
  But you sing to me over and over and over again.

CHORUS: (strummed)
       E      B         A
  So I lay my head back down,
        E       B
  And I lift my hands and
  A          C#m7
  Pray to be only yours,
    A          C#m7
  I pray to be only yours,
     C9                B
  I know now you’re my only hope.

  Em     G     Bm     Em  C9      G      C9       B     Em
e--------------------0---|-------------------------------|
B---------------3--3---0-|3----3--3---3---3---3---4---4--|
G----0------4------------|0--0--0-0--0----0--0----4--4-4-|
D-2----2-5----5---4---(2)|--2------0--------2------4-----|
A---2------5----2--------|3-------------2-3-----3-2------|
E-0------3-------------0-|--------3----------------------|

VERSE 2: (plucked)
Em        G      Bm  Em       C9   G   C9   B
  Sing to me the songs of the stars,
Em         G      Bm   Em    C9           G         C9   B
  Of your galaxy dancing and laughing and laughing again.
Em        G             Bm  Em        C9   G   C9   B
  When it feels like my dreams are so far,
Em        G         Bm  Em         C9          G     C9   B
  Sing to me of the plans that you have for me over again.

REPEAT CHORUS

INSTRUMENTAL:
(Still a bit off. Haven't had time fixing this yet.)
e---7-7--7-7-------7-7-------------------------|
B---8-8--8-8--7-7--8-8---------8-8----------7--|
G-------------8-8-------9-9---------9-9---8-8--|
D----------------------------------------------|
A--7----5---------7-----------5----------------|
E------------7---------8-----------8-----7-----|

BRIDGE: (strummed)
D                 Em
  I’ll give you my apathy,
D               Em
  I’m giving you all of me.
D              Em
  I want your symphony,
  F#7                   B
  Singing in all that I am.
         A                   B
  At the top of my lungs,
      A                   B
  I’m giving it back.___

REPEAT CHORUS

============================================================================
8. Amy's Song
============================================================================


D5      057xxx
Bm5sus  9,9,11,x,x,x
G5sus   557xxx
A#5     888xxx
A5      777xxx

NOTE:
(#) = optional notes

riff (basic structure):
|-----------------------------|
|-----------------------------|
|-----------------------------|
|-----------------------------|
|-(0)(0)---5-(5)(5)(5)--------|
|--0--0-/7----5--5--5--6--7---|

Drop D Tuning (DADGBE)

Amy's Song

D|------0-------0-------------|
A|----0-------0---------------| (finger-picked)
D|--0-------5-----------------|

D|------7-------0-------------|
A|----0-------0---------------| (finger-picked)
D|--0------/5-----------------|

D|------4-0------0---------0--|
A|----0--------0---------0----| (finger-picked)
D|--0--------5---------0------|

Verse:
riff...

Chorus: x2
D5  Bm5sus  G5sus
A#5  A5  D5


E|-------------------|
B|--5/^7-------------|
G|--------7----------|
D|---------------(0)-|
A|-----------4-5--0--|
D|----------------0--|

VERSE
CHORUS


D|------0------0------7------4------0------0------0--|
A|----0------0------0------0------0------0------0----|(finger-picked)
D|--0------5------0------0------0------5------0------|

(no chord)

D|-----0-------------------0-------------|
A|---0-------------------0---------------| (finger-picked)
D|-0-------------------5-----------------|

D|----------4-0----------0--|
A|--------0------------0----| (finger-picked)
D|------0------------5------|

D|------2-0---------------0--|
A|----0-----------------0----| (finger-picked)
D|--0-----------------5------|

D|------0------------------------|
A|----0--------------------------| (finger-picked until pickups)
D|--0---------------5--5--5-6-7--|

CHORUS

D|------4~-----0------7/4------0------7-4-0--0---0----0--|
A|----0------0------0--------0------0----------0-----0---|
D|--0------5------0--------5------0----------5------0----|
Repeat

============================================================================
9. I Turn Everything Over
============================================================================

Intro
----------------------------------------------|
----------------------------------------------|
99-11-13\-9-99-9-11br-99-11-13\-9-999-1111----|
xx--x--x--x-xx-x--x---xx--x--x--x-xxx--x-x----|
77--9-11\-7-77-7--9br-77--9-11\-7-777--9-9----|
----------------------------------------------|

Verse
---7-----7----4----7-----7--------------|
---5-----4----2----5-----5--------------|
----------------------------------------|
----------------------------------------|
7-----6-----4----0----------------------|
----------------------7-----------------|

Pre-Chorus
55-7-44-5-------------------------------|
22-4-22-2-------------------------------|
----------------------------------------|
----------------------------------------|
----------------------------------------|
----------------------------------------|

Chorus
---------777------777----444-----777-----444--------------------|
---------555------555----222-----555-----222--------------------|
9999-----------------------------------------9999---------------|
9999-----------------------------------------9999-777-99--------|
7777-7-------5/7------0------5/7------0------7777-777-99--------|
--------------------------------------------------555-77--------|

Intro:
High power chords

  E  F#  G#
  A  E  F# (Bend slightly)
  E  F#  G#
  A  B

Verse:
Ska-like chords (Just play E B G strings)

  E  B  C#  A  B

Pre-Chorus:

  F#(High)  B  G#  A

Chorus: Play with power chords and open strings - no bar chords

  E  A  C#  A
  C#  A  E  A  B

---CHORDS---

Intro riff

Verse

Chorus

Bridge:

  E  D  C#  B
  A  B  G#  A

then:
  E
  B C# B
  B C# B
  E
  B C# B
  B E G#

Pre-Chorus

Chorus

Then C B and end with chorus riff

============================================================================
10. Under The Floor - ( To be tabbed ( Sorry )
============================================================================
NOTE: Fabulous album. every song is awesome in every manner!!!
      Yeah it's that good, listen yourself
============================================================================
NOTE: Running out of ink yet? Hahahaha.....
============================================================================
3. Learning to Breathe
============================================================================
1. I Dare You To Move
2. Learning To Move
3. You Already Take Me There
4. Love Is The Movement
5. Poparazzi
6. Innocence Again
7. Playing For Keeps
8. Loser
9. Economy of Mercy
10. Erosion
11. Living is Simple
============================================================================
Put together by Asa Gaston
Year: 2000
============================================================================
1. I Dare You To Move
============================================================================

Capo on 2

Chords (relative to capo)
D5 = XX0235 (pinky on 5)
D  = XX0232
Dsus2    = XX0230
Dsus2/G  = 3X0230
A  = X02220 or 577655
Em = 022000
G  = 320003 or 355433
Bm = X24432

[]Brackets indicate a quick transition chord, which can maybe be omitted if you're not
very good.  Good luck!

Intro:  D5 D Dsus2 Dsus2/G  (x2)

               D5 D Dsus2 Dsus2/G
Welcome to the planet
             D5 D Dsus2 Dsus2/G
Welcome to existence
           Em
Everyone's here
           A
Everyone's here
            D5       D       Dsus2/G
Everybody's watching you now
          D5        D       Dsus2/G
Everybody waits for you now
             Em
What happens next?
             A
What happens next?


Chorus:
              D
I dare you to move
              A
I dare you to move
              G                        G
I dare you to lift yourself up off the floor
          [A] D
I dare you to move
              A
I dare you to move
                 G
Like today never happened
            A
Today never happened before

D5 D Dsus2/G
D5 D Dsus2/G

               Bm     [A] G
Welcome to the fallout
             Bm      [A] G
Welcome to resistence
               Em
The tension is here
           [D] A 
The tension is here
                Bm                 [A] G
Between who you are and you could be
               Em                      [D]  A
Between how it is and how it should be... yeah

              D   
I dare you to move
              A
I dare you to move
              G                        G
I dare you to lift yourself up off the floor
          [A] D
I dare you to move
              A
I dare you to move
                 G
Like today never happened
            A
Today never happened

        D                       Dsus2/G
Maybe redemption has stories to tell
         D                           Dsus2/G
Maybe forgiveness is right where you fell
              Bm                     G
Where can you run to escape from yourself?
                Em
Where you gonna go?
                A
Where you gonna go?
             D
Salvation is here

D Dsus2/G
D Dsus2/G
              D   
I dare you to move
              A
I dare you to move
              G                                       G
I dare you to lift yourself, lift yourself up off the floor
           A  D
I dare you to move
              A
I dare you to move
                 G
Like today never happened
            Bm
Today never happened
            G
Today never happened
            A          D
Today never happened before

============================================================================
2. Learning To Breathe
============================================================================

Chords needed:

(Intro)  G2    3x023m    > In order to get the intro right, you’ve 
         G     3x043m      gotta place your fingers like this:
         C6    x3m23m        1st finger on the G string
         Cmaj7 x3m43m        2nd finger on the E string
                             3rd finger on the B string  
(Song)   Am7   x02013        4th finger hangs and does the variations
         C2    x30033
         G     3m0033
         D     xx0232
         Dsus  xx0233
         Em2\B x2m032
         Em7   022033
         C2*   x32033
         A7    x02023   

============================================================================

(INTRO)
   Riff 1a (Gtr 1)          x3      Fill 1
e||---------------------------||  |---------------------------------|
B||---3-3-3-3-3-3-3-3-3---3---||  |-3-3-3-3-3-3-3-3-3-3-3-3-3-3-3-3-|
G||o--2-4-2-4-4-2-4-2-4br-2--o||  |-2-4-2-2-0-0-0-0-4-4-4-4-0-0-0-0-|
D||o--0-0-0-0-0-0-0-0-0---0--o||  |-0-0-0-0-0-0-0-0-0-0-0-0-0-0-0-0-|
A||---------------------------||  |---------------------------------|
E||---------------------------||  |---------------------------------|
|
| Riff 1b (Gtr 2)
e||---------------------------||
B||---3-3-3-3-3-3-3-3-3---3---||
G||o--2-4-2-4-4-2-4-2-4---2--o||
D||o--0-0-0-0-0-0-0-0-0---0--o||
A||---------------------------||
E||---------------------------||

Repeat Riff 1 x3
then:
Fill 2
e|---------------------------------|---------------------------------|
B|-3-3-3-3-3-3-3-3-3-3-3-3-3-3-3-3-|-3-3-3-3-3-3-3-3-3-3-3-3-3-3-3-3-|
G|-2-2-2-2-2-2-2-2-0-0-0-0-0-0-0-0-|-0-0-0-0-0-0-0-0-0-0-0-0-0-0-0-0-|
D|-0-0-0-0-0-0-0-0-0-0-0-0-0-0-0-0-|-4-4-4-4-4-4-4-4-4-4-4-4-4-4-4-4-|
A|---------------------------------|---------------------------------|
E|---------------------------------|---------------------------------|



Intro:
G2 G G2 G…
C6 Cmaj7 C6 Cmaj7…  3x
Dsus

----------------------------------------------------------------------------

Verse 1:
Am7  C2   G D G D
Am7  C2   G D G D
C2   Em2\B   Dsus


Chorus:
C2   Em7   C2   Em7
C2   Em7  Dsus  C2*


Verse 2:
C2        G D G D
Am7  C2   G D G D


Back to Chorus


Bridge:  
Em7   C2  G D G D 
Em7   C2  G D G D


Quiet part:  
C2   Em2\B   
C2   Em2\B
C2   Em2\B
Dsus


Chorus:
C2   Em7   C2   Em7
C2   Em7  Dsus  C2*
Dsus  C2*  A7   C2


Back to regular chorus 1x

============================================================================
3. You Already Take Me There
============================================================================

Chords:
    G   D#  F   C   D   C?  E7
E---x---x---x---x---x---x---x---|
B---x---x---x---x---x---3---x---|
G---x---8---x---5---7---5---7---|
D---5---8---3---5---7---5---9---|
A---5---6---3---3---5---3---7---|
E---3---x---1---x---x---x---x---|

Intro, W/Heavy Distortion:
G   D#  F
G   D   C
D#  D

Verse, Clean:
C?  D   E7   (x4)

Chorus, W/Heavy Distortion:
G   D#  F
G   D#  C   G   D#  C
D#  D

(2nd Verse)-same as 1st verse
(Chorus)

Last chorus :
G   D#  F
G   D#  C   G   D#  C
D#  D   D#  D   D#  D   G

============================================================================
4. Love is the Movement
============================================================================

Verse:
Dm Bb F C

Pre-chorus:
G 

Chorus:
Dm Bb Gm C A(major)

After Chorus:
Bb F
Bb C D (major)
D
Intro again
Chorus

============================================================================
5. Poparazzi
============================================================================

INTRO
  Gtr I (w/distortion)
|----------------------|-------------------------|
|------4----4-4-4-4----|--------------4----4-4---|
|------6b8==6-6-6-6r---|--------------6b8==6-6r--|
|----------------------|---5---5-5-3-------------|
|----------------------|-3---3-------------------|
|----------------------|-------------------------|
|
| Gtr II (clean)
|----------------------|-------------------------|
|----------------------|-------------------------|
|----------------------|-------------------------|
|----------------------|-2-----5-5-3-------------|
|--------------------1-|-3-x-x--------0----0-1---|
|----------------------|-------------------------|

                *1/4 bend
|---------------------------------|
|---------------------------------|
|---------------------------------|
|--------------3b3.5====3-3-3-3r--|
|-3-3-5-1-5-1---------------------|
|---------------------------------|
|
|---------------------------------|
|---------------------------------|
|---------------------------------|
|---------------------------------|
|-3-3-5-1-5-1---------------------|
|---------------------------------|

|-------------------------|-----------------|
|--------------4----4-4---|-----------------|
|--------------6b8==6-6r--|-----------------|
|---5---5-5-3-------------|-----------------|
|-3---3-------------------|-3-3-5-1-5-------|
|-------------------------|-----------1-----|
|
|-------------------------|-----------------|
|-------------------------|-----------------|
|-------------------------|-----------------|
|-------5-5-3-------------|-----------------|
|-3-x-x--------0----0-1---|-3-3-5-1-5-------|
|-------------------------|-----------1-----|


 VERSE 1
  Gtrs I, III (w/distortion)
  C7                *1/4 bend        C7
|----------------------------------|-----------------------------|
|----------------------------------|----------------4-----4-4-4--|
|---3---3-3---3--------------------|---3---3-3---3--6b8===6-6-6r-|
|---2---2-2---2--x-3b3.5====3-3-3r-|---2---2-2---2---------------|
|-3---3-----3----x-----------------|-3---3-----3-----------------|
|----------------------------------|-----------------------------|

  C7                *1/4 bend       C7
|---------------------------------|-----------------------------------|
|---------------------------------|----------------3h4p3---1--1h3p1---|
|---3---3-3---3-------------------|---3---3-3---3---------------------|
|---2---2-2---2--x-3b3.5===3-3-3r-|---2---2-2---2---------------------|
|-3---3-----3----x----------------|-3---3-----3-----------------------|
|---------------------------------|-----------------------------------|
|
| Gtr IV (w/distortion)
|---------------------------------|-----------------------------------|
|---------------------------------|--------------------4--------(4)---|
|---------------------------------|--------------------6b8======(6)r--|
|---------------------------------|-----------------------------------|
|---------------------------------|-----------------------------------|
|---------------------------------|-----------------------------------|


 CHORUS 1
  A5              F5                A5             G#5
|---------------------------------|----------------------------|
|---------------------------------|----------------------------|
|---------------------------------|----------------------------|
|-7-7-7-7-7-7-7---3-3-3-3-3-3-3-3-|-7-7-7-7-7-7-7--6--6--6--6--|
|-7-7-7-7-7-7-7-0-3-3-3-3-3-3-3-3-|-7-7-7-7-7-7-7--6--6--6--6--|
|-5-5-5-5-5-5-5-0-1-1-1-1-1-1-1-1-|-5-5-5-5-5-5-5--4--4--4--4--|

  C5     g#     a      e5            C5     g#     a      e5
|----------------------------------|-----------------------------------|
|----------------------------------|-----------------------------------|
|--------13-13--14-14--10-10-10-10-|--------13-13--14-14--10-10-10-10--|
|-10-x-x---------------10-10-10-10-|-10-x-x---------------10-10-10-10--|
|-10-x-x-11-11--12-12---8--8--8--8-|-10-x-x-11-11--12-12---8--8--8--8--|
|--8-x-x---------------------------|--8-x-x----------------------------|

  C5       b           a        *1/4 bend       G#
|--------------------------------------------|--^4---^4-------|
|--------------------------------------------|--^4---^4-------|
|----------16-16-16-16-14-14-----------------|--^5---^5-------|
|-10-10-10--------------------12b12.5==(12)r-|--^6---^6-------|
|-10-10-10-14-14-14-14-12-12-----------------|--^6---^6-----1-|
|--8--8--8-----------------------------------|----------------|

  Gtr II
|--------------------------------|---------------------------|
|--------------------------------|---------------------------|
|--------------------------------|---------------------------|
|---5---5-5-3--------------------|---------------------------|
|-3---3---------------0--0--1----|-3-3-5-1-5-----------------|
|--------------------------------|-----------1---------------|
|
| Gtr IV
|--------------------------------|---------------------------|
|---------------4----(4)---(4)---|--------------4-----4-4-4--|
|---------------6b8==(6)---(6)r--|--------------6b8===6-6-6r-|
|--------------------------------|---------------------------|
|--------------------------------|---------------------------|
|--------------------------------|---------------------------|


 VERSE 2
    Gtrs I, III
    C7                *1/4 bend       C7                           x2
||----------------------------------|------------------------------||
||o---------------------------------|----------------4-----4-4-4--o||
||----3---3-3---3-------------------|---3---3-3---3--6b8===6-6-6r--||
||----2---2-2---2--x-3b3.5===3-3-3r-|---2---2-2---2----------------||
||o-3---3-----3----x----------------|-3---3-----3-----------------o||
||----------------------------------|------------------------------||


 CHORUS 2
  A5              F5                A5             G#5
|---------------------------------|----------------------------|
|---------------------------------|----------------------------|
|---------------------------------|----------------------------|
|-7-7-7-7-7-7-7---3-3-3-3-3-3-3-3-|-7-7-7-7-7-7-7--6--6--6--6--|
|-7-7-7-7-7-7-7-0-3-3-3-3-3-3-3-3-|-7-7-7-7-7-7-7--6--6--6--6--|
|-5-5-5-5-5-5-5-0-1-1-1-1-1-1-1-1-|-5-5-5-5-5-5-5--4--4--4--4--|

  C5     g#     a      e5            C5     g#     a      e5
|----------------------------------|-----------------------------------|
|----------------------------------|-----------------------------------|
|--------13-13--14-14--10-10-10-10-|--------13-13--14-14--10-10-10-10--|
|-10-x-x---------------10-10-10-10-|-10-x-x---------------10-10-10-10--|
|-10-x-x-11-11--12-12---8--8--8--8-|-10-x-x-11-11--12-12---8--8--8--8--|
|--8-x-x---------------------------|--8-x-x----------------------------|

  C5       b           a                        G#
|--------------------------------------------|--^4---^4---^4----|
|--------------------------------------------|--^4---^4---^4----|
|----------16-16-16-16-14-14-----------------|--^5---^5---^5----|
|-10-10-10--------------------12b12.5==(12)r-|--^6---^6---^6----|
|-10-10-10-14-14-14-14-12-12-----------------|--^6---^6---^6----|
|--8--8--8-----------------------------------|------------------|

                    BRIDGE
 Piano solo          e5                              x2
|---------|------||----------------------------------||
|--rest---|-rest-||o----------------8------8--8--8--o||
|--four---|--2---||--9-9-9-9-9-9---10b12==10-10-10r--||
|--beats--|-beats||--9-9-9-9-9-9---------------------||
|---------|------||o-7-7-7-7-7-7--------------------o||
|---------|------||----------------------------------||

   Gtr III
    C     Am      F      G      x4
||----^-8----^5-----^1-----^3---||
||o---^-8----^5-----^1-----^3--o||
||----^-9----^5-----^2-----^4---||
||----^10----^7-----^3-----^5---||
||o----------------------------o||
||--8-----5-----0-1----0-3------||

 CHORUS 3
  A5              F5
|---------------------------------|
|---------------------------------|
|---------------------------------|
|---------------------------------|
|---------------------------------|
|-5-5-5-5-5-5-5-5-1-1-1-1-1-1-1-1-|

  A5              F5                A5              F5
|---------------------------------|---------------------------------|
|---------------------------------|---------------------------------|
|---------------------------------|---------------------------------|
|---------------------------------|---------------------------------|
|---------------------------------|-7-7-7-7-7-7-7-7-3-3-3-3-3-3-3-3-|
|-5-5-5-5-5-5-5-5-1-1-1-1-1-1-1-1-|-5-5-5-5-5-5-5-5-1-1-1-1-1-1-1-1-|

  Gtrs I, III
  G#5
|-------------------------|-------------------------------|
|-------------------------|-------------------------------|
|-------------------------|-------------------------------|
|-6--6--6--6--6--6--6--6--|-6--6--6-6-6-6-6-6-6-6-6-6-6-6-|
|-6--6--6--6--6--6--6--6--|-6--6--6-6-6-6-6-6-6-6-6-6-6-6-|
|-4--4--4--4--4--4--4--4--|-4--4--4-4-4-4-4-4-4-4-4-4-4-4-|


  C5     g#     a                    C5     g#     a
|----------------------------------|----------------------------------|
|----------------------4----4-4-4--|----------------------4----4-4-4--|
|--------13-13--14-14--6b8==6-6-6r-|--------13-13--14-14--6b8==6-6-6r-|
|-10-x-x---------------------------|-10-x-x---------------------------|
|-10-x-x-11-11--12-12--------------|-10-x-x-11-11--12-12--------------|
|--8-x-x---------------------------|--8-x-x---------------------------|

  C5       b           a                        G# 
|--------------------------------------------|--^4---^4---^4---^4--|
|--------------------------------------------|--^4---^4---^4---^4--|
|----------16-16-16-16-14-14-----------------|--^5---^5---^5---^5--|
|-10-10-10--------------------12b12.5==(12)r-|--^6---^6---^6---^6--|
|-10-10-10-14-14-14-14-12-12-----------------|--^6---^6---^6---^6--|
|--8--8--8-----------------------------------|---------------------|

   G#
|--^4---^4------|----------|-----------------|
|--^4---^4------|--rest----|------4----4-4---|
|--^5---^5------|---2------|------6b8==6-6r--|
|--^6---^6------|-measures-|-----------------|
|--^6---^6------|----------|-----------------|
|---------------|----------|-----------------|


 OUTRO
  C7
|---------------------------------------------------------------------|
|------------------------------------------------------4-------4-4-4--|
|----------------3----3---------3------3---------------6b8=====6-6-6r-|
|----------------2----2---------2------2------------------------------|
|--3---------------3----------------3---------------------------------|
|---------------------------------------------------------------------|
|
|   *3/4 bend          *3/4 bend        *3/4 bend       *3/4 bend
|---------------------------------------------------------------------|
|-12b13.5==(12)r-----12b13.5==(12)r---12b13.5==(12)r--12b13.5=(12)r---|
|---------------------------------------------------------------------|
|---------------------------------------------------------------------|
|---------------------------------------------------------------------|
|---------------------------------------------------------------------|

  C7
|--------------------------------------------------------------------|
|-------------------------------------------------------4----4-4-4---|
|-----------3-----------3-3--------3--------------------6b8==6-6-6r--|
|-----------2-----------2-2--------2---------------------------------|
|--3--------------3----------3---------------------------------------|
|--------------------------------------------------------------------|
|
|   *3/4 gradual bend...      *gradual bend...............
|---------------------------15b17====15-15-15-15-15-15-15r-----------|
|-12b13.5===12-12-12-12r---------------------------------------------|
|--------------------------------------------------------------------|
|--------------------------------------------------------------------|
|--------------------------------------------------------------------|
|--------------------------------------------------------------------|

  C7
|----------------------------------------------------------|
|-------------------------------------4-----(4)--4--4---4--|
|-------------3----3-------3-----3----6b8h==(6)--6--6---6r-|
|-------------2----2-------2-----2-------------------------|
|--3------------3--------------3---------------------------|
|----------------------------------------------------------|
|
|                                       *1/2 bend 
|-20b22h=(20)r-----20b22h=(20)r------/20b21h=20--20-20r\---|
|----------------------------------------------------------|
|----------------------------------------------------------|
|----------------------------------------------------------|
|----------------------------------------------------------|
|----------------------------------------------------------|

  C7
|----------------------------|
|----------------4----4-4-4--|
|---3---3-3---3--6b8==6-6-6r-|
|---2---2-2---2--------------|
|-3---3-----3----------------|
|----------------------------|

  C7               *1/4 bend       C7
|--------------------------------|----------------------------|
|--------------------------------|----------------4----4-4-4--|
|---3---3-3---3------------------|---3---3-3---3--6b8==6-6-6r-|
|---2---2-2---2--x-3b3.5==3-3-3r-|---2---2-2---2--------------|
|-3---3-----3----x---------------|-3---3-----3----------------|
|--------------------------------|----------------------------|

  C7                *1/4 bend      Gtr II (clean)
|--------------------------------|----------------*|
|--------------------------------|----------------*|
|---3---3-3---3------------------|----------------*|
|---2---2-2---2--x-3b3.5==3-3-3r-|-2-----5-5-3----*|
|-3---3-----3----x---------------|-3-x-x----------*|
|--------------------------------|----------------*|


Tablature Legend
----------------
 h   - hammer-on
 p   - pull-off
 b   - bend
 r   - bend release (if no number after the r, then release immediately)
 /\  - slide into or out of (from/to "nowhere")
 =   - hold bend; also acts as connecting device for hammers/pulls
 x   - on rhythm slash represents muted slash
 ^   - arpeggio (downward sweep of pick on a chord)

Misc Legend
-----------
 |  - bar
||  - double bar
||o - repeat start
o|| - repeat end
*|  - double bar (ending)

============================================================================
6. Innocence Again
============================================================================







Intro
         Dm                 Bb           F            A
|--------5-|---5---5--5-|------------|------------|----------------|
|--------6-|---6---6--6-|---6---6--6-|---1---1--1-|---5---5-5-5----|
|--------7-|---7---7--7-|---7---7--7-|---2---2--2-|---6---6-6-6----|
|--------7-|---7---7--7-|---8---8--8-|---3---3--3-|---7---7-7-7----|
|--------5-|------------|---8---8--8-|---3---3--3-|---7---7---7----|
|----------|------------|------------|------------|----------------|
|
|----------|------------|------------|------------|--------------1-|
|----------|------------|------------|------------|-------------3--|
|----------|------------|------------|------------|------------2---|
|----------|------------|------------|------------|-----------0----|
|----------|------------|------------|------------|----------------|
|----------|------------|------------|------------|----------------|


 Verse 1
  Dm                     Bb            F               A
|----5---5--5----|------------------|-------------|----------------------|
|----6---6--6----|------6---6--6----|----1---1--1-|----5-----5----5------|
|----7---7--7----|------7---7--7----|----2---2--2-|----6-----6----6------|
|----7---7--7----|------8---8--8----|----3---3--3-|----7-----7----7------|
|----------------|------8---8--8----|----3---3--3-|----7-----7----7------|
|----------------|------------------|-------------|----------------------|
|
|----------------|------------------|-------------|------------------1---|
|--------------3-|------------------|-------------|-2--2-2-3---5----3----|
|-------------3--|----------------2-|-------------|-2--2-2-2---2---2-----|
|------------3---|---------------3--|-------------|-2--2-2-2---2--0------|
|-----------1----|--------------3---|-------------|-0--0---0---0---------|
|----------------|-------------1----|-------------|----------------------|

  Dm                 Bb                 F               A
|------5---5--5----|------------------|---------------|----------------|
|------6---6--6----|------6---6--6----|------1---1--1-|----5-----5---5-|
|------7---7--7----|------7---7--7----|------2---2--2-|----6-----6---6-|
|------7---7--7----|------8---8--8----|------3---3--3-|----7-----7---7-|
|------------------|------8---8--8----|------3---3--3-|----7-----7---7-|
|------------------|------------------|---------------|----------------|
|
|------------------|------------------|---------------|----------------|
|----------------3-|------------------|---------------|-2--2-2-3-2-----|
|---------------3--|----------------2-|---------------|-2--2-------2---|
|--------------3---|---------------3--|---------------|-2--2-----------|
|-------------1----|--------------3---|---------------|-0--0-----------|
|------------------|-------------1----|---------------|----------------|


   Pre-Chorus
    Gtr III (plays chords notated by slashes)
    Bb5              F5                G5              C5
    / / / / / //  /  / / / / / // /    / / / / / // /  /  /  /
            ~                ~      2x           ~
||-----------------|----------------||---------------|-------------||
||o----------------|---------------o||---------------|-------------||
||----------7------|---------2------||---------3-----|-5--5--5-----||
||-----------------|----------------||---------------|-5--5--5-----||
||o-----8-8----8\--|-----3-3----3--o||-----5-5----5--|-3--3--3-----||
||--6-6------------|-1-1------------||-3-3-----------|-------------||


   Chorus 1
    Dm                Bb
||--5--5------5-5-5-|----------------|
||o-6--6------6-6-6-|--6---6---6-6-6-|
||--7--7------7-7-7-|--7---7---7-7-7-|
||--7--7------7-7-7-|--8---8---8-8-8-|
||o-5--5------------|--8---8---8-8-8-|
||------------------|--6---6---------|
|
||------------------|----------------|
||o---------3-5---6-|----------------|
||-------/2---------|----------------|
||------------------|----------------|
||o-----------------|----------------|
||------------------|----------------|


 1st ending
  F                   A
|-------------------|---------------------||
|-1---1-------1-1-1-|-5---5-------5-5-5--o||
|-2---2-------2-2-2-|-6---6-------6-6-6---||
|-3---3-------3-3-3-|-7---7-------7-7-7---||
|-3---3-------3-3-3-|-7---7-------7-7-7--o||
|-1---1-------------|-5---5---------------||
|
|-------------------|---------------------||
|-------------------|--------------------o||
|-3-2---------------|-6-------------------||
|-------3-----------|---7-----------------||
|-------------------|-------7------------o||
|-------------------|---------------------||


  2nd ending
  Bb                A         (Dm)                                      2x
|-----------------|--------||----------------------|--------------------||
|-----------------|--------||o-----6---------------|-------6-----------o||
|-7---7-7---7-7-7-|-6------||--7---------------5---|--7------------5----||
|-8---8-8---8-8-8-|-7------||----7----7-5----7---7-|-----7---7-5-7---7--||
|-8---8-8---8-8-8-|-7------||o---------------------|-------------------o||
|-6---6-6---6-6-6-|-5------||----------------------|--------------------||
|
|-----------------|--------||----------------------|--------------------||
|-----------------|--------||o----------3---/5---5-|-------------------o||
|-3---------------|--------||--------/2------------|--------------------||
|---3-------------|--------||----------------------|--------------------||
|-------1---------|-0------||o---------------------|-------------------o||
|-----------------|--------||----------------------|--------------------||


 Verse 2
  Dm           Bb           F            A
|---5---5--5-|------------|------------|---------------|
|---6---6--6-|---6---6--6-|---1---1--1-|---5-5-5-5-5-5-|
|---7---7--7-|---7---7--7-|---2---2--2-|---6-6-6-6-6-6-|
|---7---7--7-|---8---8--8-|---3---3--3-|---7-7-7-7-7-7-|
|------------|---8---8--8-|---3---3--3-|---7-7-7-7-7-7-|
|------------|------------|------------|---------------|
                                           
  Dm           Bb             F            A
|---5---5--5-|--------------|------------|----------------|
|---6---6--6-|---6-6-6-6--6-|---1---1--1-|---5-5-5-5-5-5--|
|---7---7--7-|---7-7-7-7--7-|---2---2--2-|---6-6-6-6-6-6--|
|---7---7--7-|---8-8-8-8--8-|---3---3--3-|---7-7-7-7-7-7--|
|------------|---8-8-8-8--8-|---3---3--3-|---7-7-7-7-7-7--|
|------------|--------------|------------|----------------|


 Play Pre-Chorus again


 Chorus 2
    Dm                Bb
||--5--5------5-5-5-|----------------|
||o-6--6------6-6-6-|--6---6---6-6-6-|
||--7--7------7-7-7-|--7---7---7-7-7-|
||--7--7------7-7-7-|--8---8---8-8-8-|
||o-5--5------------|--8---8---8-8-8-|
||------------------|--6---6---------|
|
||------------------|----------------|
||o---------3-5---6-|----------------|
||-------/2---------|----------------|
||------------------|----------------|
||o-----------------|----------------|
||------------------|----------------|


 1st ending
  F                   A
|-------------------|---------------------||
|-1---1-------1-1-1-|-5---5-------5-5-5--o||
|-2---2-------2-2-2-|-6---6-------6-6-6---||
|-3---3-------3-3-3-|-7---7-------7-7-7---||
|-3---3-------3-3-3-|-7---7-------7-7-7--o||
|-1---1-------------|-5---5---------------||
|
|-------------------|---------------------||
|-------------------|--------------------o||
|-3-2---------------|-6-------------------||
|-------3-----------|---7-----------------||
|-------------------|-------7------------o||
|-------------------|---------------------||


  2nd ending
  Bb                  A
|-------------------|-----------||
|-------------------|-----------||
|-7---7-7-----7-7-7-|-----------||
|-8---8-8-----8-8-8-|-----------||
|-8---8-8-----8-8-8-|---------3-||
|-6---6-6-----6-6-6-|-5---------||
|
|-------------------|-----------||
|-------------------|-----------||
|-3-----------------|-----------||
|---3---------------|-----------||
|-------1-----------|-0---------||
|-------------------|-----------||


 Guitar Solo
  (dist elec)
|-------------------|----------------|---------------|----------------|
|-------------------|----------------|---------------|----------------|
|--------3----3-----|----------------|----3--5-5-3---|----6-6-7-6-----|
|----3---3h5--3-----|------------3---|---------------|------------8-7-|
|-5----5--------5-3-|----3-------3---|---------------|----------------|
|-------------------|-1--1-1-/5----5-|-3-----------3-|-5--------------|


   (acoustic)
|-------------5--/8-|-------6-6-/8-5-|-(5)\------------|---------------|
|---3-/5-6-/8-------|----------------|-------6-6--/10--|-10\-5-5-/8-6/-|
|-------------------|----------------|-----------------|---------------|
|-------------------|----------------|-----------------|---------------|
|-------------------|----------------|-----------------|---------------|
|-------------------|----------------|-----------------|---------------|

                                                            Bridge
|---------------|--------------|-------------|-------------|------|
|-7----------/6-|--------------|------6\--1--|-2---2-3-5-3-|-rest-|
|---7-----------|-----5--------|-------------|-------------|-nine-|
|-----7---------|-------5\3-/7-|----7--------|-------------|-bars-|
|-------7\5-----|--------------|-------------|-------------|------|
|---------------|--------------|-------------|-------------|------|


   Chorus 3
    Dm                Bb
||--5--5------5-5-5-|----------------|
||o-6--6------6-6-6-|--6---6---6-6-6-|
||--7--7------7-7-7-|--7---7---7-7-7-|
||--7--7------7-7-7-|--8---8---8-8-8-|
||o-5--5------------|--8---8---8-8-8-|
||------------------|--6---6---------|
|
||------------------|----------------|
||o---------3-5---6-|----------------|
||-------/2---------|----------------|
||------------------|----------------|
||o-----------------|----------------|
||------------------|----------------|


 1.
  F                   A
|-------------------|---------------------||
|-1---1-------1-1-1-|-5---5-------5-5-5--o||
|-2---2-------2-2-2-|-6---6-------6-6-6---||
|-3---3-------3-3-3-|-7---7-------7-7-7---||
|-3---3-------3-3-3-|-7---7-------7-7-7--o||
|-1---1-------------|-5---5---------------||
|
|-------------------|---------------------||
|-------------------|--------------------o||
|-3-2---------------|-6-------------------||
|-------3-----------|---7-----------------||
|-------------------|-------7------------o||
|-------------------|---------------------||


  2.
  Bb                  A
|-------------------|--------------|
|-------------------|--------------|
|-7---7-7-----7-7-7-|-6------------|
|-8---8-8-----8-8-8-|-7------------|
|-8---8-8-----8-8-8-|-7------------|
|-6---6-6-----6-6-6-|-5------------|
|
|                          1/4 bend
|-------------------|--------------|
|-------------------|------5b5.5---|
|-3-----------------|--------------|
|---3---------------|--------------|
|-------1-----------|-0------------|
|-------------------|--------------|


   Outro
    Bb5                      F5
||-------------------------|--------------------------|
||o------------------------|--------------------------|
||--------------2--3--2----|---------------2--3--2----|
||--3-----3--------------3-|------------------------3-|
||o-1-----1----------------|--3------3----------------|
||-------------------------|--1------1----------------|
|
||-------------------------|--------------------------|
||o------------------------|--------------------------|
||--------------2--3--2----|---------------2--3--2----|
||-----------------------3-|------------------------3-|
||o------------------------|--------------------------|
||-------------------------|--------------------------|
|
||-------------------------|--------------------------|
||o------10----10-11-10----|--------10----10-11-10----|
||----10----10----------10-|-----10----10----------10-|
||--8----------------------|--------------------------|
||o------------------------|--8-----------------------|
||-------------------------|--------------------------|


 1.,2.,3. endings
  Bb5                        F5                        4x
|--------------------------|---------------------------||
|--------------------------|--------------------------o||
|---------------2--3--2----|---------------3--2-0------||
|--3------3--------------3-|-----------------------3---||
|--1------1----------------|--3------3----------------o||
|--------------------------|--1------1-----------------||
|
|                                                      4x
|--------------------------|---------------------------||
|--------------------------|--------------------------o||
|---------------2--3--2----|---------------3--2-0------||
|------------------------3-|-----------------------3---||
|--------------------------|--------------------------o||
|--------------------------|---------------------------||
|
|                                                      4x
|--------------------------|---------------------------||
|--------10----10-11-10----|--------10----11-10-8-----o||
|-----10----10----------10-|-----10----10---------10---||
|--8-----------------------|---------------------------||
|--------------------------|--8-----------------------o||
|--------------------------|---------------------------||


  4th ending
  Bb5                       F
|-------------------------|----------|--------*|
|-------------------------|----------|--------*|
|---------3--2--3--2-0----|----------|--------*|
|--3--------------------3-|----------|--------*|
|--1----------------------|----------|--------*|
|-------------------------|-1--------|--------*|
|
|-------------------------|----------|--------*|
|-------------------------|----------|--------*|
|---------3--2--3--2-0----|----------|--------*|
|-----------------------3-|----------|--------*|
|-------------------------|----------|--------*|
|-------------------------|-1--------|--------*|
|
|-------------------------|----------|--------*|
|--------11-10-11-10-8----|----------|--------*|
|-----10---------------10-|----------|--------*|
|--8----------------------|----------|--------*|
|-------------------------|-8--------|-(8)----*|
|-------------------------|----------|--------*|

============================================================================
7. Playing for Keeps
============================================================================

Verse:
E,A

Chorus:
G,D,C
G,D,C
E,D,C
G,D,C

Bridge:
G,C,A,D

============================================================================
8. Loser
============================================================================



STANDARD TUNING
EADGBe

------------------------------|
----9br9----------9br9--------|
----9br9----------9br9--------|
------------------------------|x3
-11-------99--11------77------|
--0-------77---9------55------|

------------------------------|
-----9br9---------------------|
-----9br9---------------------|
---------------66666666-------|
-11--------99--66666666-------|
--0--------77--44444444-------|

chorus
-----------------------------------------------------|
----------------------------------9b10r9-------------|
------13b14r13---------------------------------------|
-----------------------------------------------------|
-11-------------11-9-9-x-x--11-----------11-7-7-x-x--|
--0--------------0-7-7-x-x---9------------9-5-5-x-x--|


-----------------------------------------------------|
----------------------------------9b10r9-------------|
------13b14r13---------------------------------------|
-----------------------------------------------------|
-11-------------11-9-9-x-x--11-----------11-9-9-8----|
--0--------------0-7-7-x-x---9------------9-7-7-6----|

============================================================================
9. Economy of Mercy
============================================================================

Intro:
D, Bm, G, A, D, Bm, G, Em

Verse:
Bm  Em  (F#m)  G
Bm  Em  (F#m)  G

Pre-Chorus:
Em  F#m  G
Em  F#m  G  A

Chorus:
A  F#m  D  E
A  F#m  D  E
A  E  D

Verse 2

Pre-Chorus

Chorus

Bridge:
Bm  (F#m)  G
Bm  A  Em
G  D  Em

Bm  A  Em  G  D  A
Bm  A  G  Em  D  A  D

============================================================================
10. Erosion
============================================================================

e---------------------------------------------------
B----------------------------------------------------
G----7--9--7-----------------------------------------
D----------------------9-9-9-9--------7-7-7-7-7-7-7
A--7----------10---7-----------10---7---------------
E----------------------------------------------------

Chorus:
EBAB
EBAB
C#BAB
EBAB

============================================================================
11. Living is Simple
============================================================================

Intro:
(E5  D5) x2

VERSE 1:
(E5  D5) x4
 Bsus  A5  E5

PRE-CHORUS:
C#m  Bsus
C#m  Bsus  A5

CHORUS:
(E5  D5  Bsus  A5) x2
 C#m  Bsus
 C#m  Bsus  A5

INTERLUDE
(E5  D5) x2

VERSE 2:
(E5  D5) x4
 Bsus  A5  E5
 D5  E5  D5

BRIDGE:
C#m  Bsus  A5
C#m  Bsus  A5  Bsus

CHORUS:
(E5  D5  Bsus  A5) x2
 C#m  Bsus
 C#m  Bsus  A5  F#m11

Outro
(E5  D5  Bsus  A5  Bsus) x4
 E5  D5  Bsus  A5  E

NOTE: Well here you go you switchfoot fans 

============================================================================
NOTE: Alot of songs. I'd say about about 90% of them Rock. That's why they
      had to be put together, see. Anyway, It's pretty easy, so you        
      should't have any problems. Well... ...ENJOY!!!

                                                  -Asa ( the one and only )
                                                









comments
We did not receive enough feedback on this tab! Please rate:
print report bad tab
1 2 3 4 5
I want to post or [tab]
guest
You may want to rate the tab now too:
select rating
Please do not post tabs as comments. Select "correction" instead!