Oops, an error
Loading. Please wait.

The Legend Of Chin Tab

ver1
ver1

Album

More versions @911Tabs.com
3,884 views 3 this week
no commentswrite comment
1 2 3 4 5
accurate
x 3
Autoscroll
+/-
esc
set tempo
stop
Contributor
Hey! There's an official Ultimate Guitar app which is ideal
for learning songs when you're away from computer. Get the app
WARNING: You are trying to view
                                    content from Ultimate-Guitar.com
                                    in an unauthorized application,
                                    which is prohibited.

                                    Please use an official Ultimate
                                    Guitar Tabs application for iPhone,
                                    iPad or Android to access legitimate
                                    chords, guitar, bass, and drum tabs
                                    from Ultimate-Guitar.com database.

                                    Type "ultimate guitar tabs" in Apple
                                    App Store's or Android Market's
                                    search to find the application.
============================================================================
Switchfoot - The Legend of Chin
============================================================================
1. Bomb
2. Chem 6a
3. Underwater
4. Edge Of My Seat
5. Home
6. Might Have Been Hur
7. Concrete Girl
8. Life And Love And Why
9. You
10. Ode To Chin
11. Don't Be There
============================================================================
Year: 1997
Tablatured by Asa Gaston
============================================================================
1. Bomb
============================================================================

Drop-D

Intro:
Bass line
G|-----------------------------
D|-----------010-----------0-1-
A|030-------1---3-030---30-----
D|---1113103---------1-2--2----

Guitar Riff Intro:
e|--------------------------------
B|-----5-------4--------5---------
G|---54-45----5-5-----54-45-------
D|--5-----5--6---6---5-----5--6--5
A|-3--------6-----6-3--------6--5-
D|---------6----------------6--5--

Verse:
Power Chords
A D# D C
A D# D F
A D# D C
A D# D F

Chorus:
F A G# G F
A G# G F

Post Chorus:
A# B C 2x

Verse again, but different chords follow:
A G# G F G
the chord before the chorus this time is
E
The ending is the same as the intro, except for it ends on power chord C

============================================================================
2. Chem 6a
============================================================================

 Intro
  G       B5        C7      D5
|-----------------|----------------------|
|-----------------|----------------------|
|-----4-0-----4-0-|-----3-0-----2h4p2p0--|
|-----------------|---------0-0-0--------|
|---------2-2-----|-3-3------------------|
|-3-3-------------|----------------------|

  G           B5        C7      D5
|---------------------|---------------||
|---------------------|---------------||
|-----4-x---x-----4-0-|-----3-0-------||
|-----x-x-x-x---------|---------7-----||
|-------x-x-x-2-2-----|-3-3-----5--5\-||
|-3-3-----------------|---------------||


   Verse
    G         B5        C7      D5
||--------------------|----------------------|
||o-------------------|----------------------|
||------4-x-x-----4-0-|-----3-0-----2h4p2p0--|
||------x-x-x---------|---------0-0-0--------|
||o-------x-x-2-2-----|-3-3------------------|
||--3-3---------------|----------------------|


  1st ending
  G           B5        C7      D5
|---------------------|----------------||
|---------------------|---------------o||
|-----4-x---x-----4-0-|-----3-0--------||
|-----x-x-x-x---------|---------7------||
|-------x-x-x-2-2-----|-3-3-----5--5\-o||
|-3-3-----------------|----------------||


  2nd ending
  G           B5                Bb
|-----------------------------|----------------------|
|-----------------------------|----------------------|
|-----4-4-4-4-4-4-4-4-4-4-4-4-|-3-3-3-3-3-3-3-3------|
|-----------------------------|-----------------7----|
|-------------2-2-2-2-2-2-2-2-|-1-1-1-1-1-1-1-1-5----|
|-3-3-3-3-3-3-----------------|----------------------|


   Chorus
    Em7       G           Em7       A7sus4
||----------------------|---------------------|
||o---3-3-3-3-3-3-3-3-3-|---3-3-3-3-3-3-3-3-3-|
||--0-0-0-0-0-0-0-0-0-0-|-0-0-0-0-0-0-0-0-0-0-|
||--2-2-2-2-2-0-0-0-0-0-|-2-2-2-2-2-2-2-2-2-2-|
||o-2-2-2-2-2-2-2-2-2-2-|-2-2-2-2-2-0-0---0-0-|
||--0---0-0---3-3---3---|-0---0-0-------------|


                         1st           2nd
  Cadd9     Em7             C9 G        C7
|-----------------------|------------||-------------|
|-3-3-3-3-3-3-3-3-3-3-3-|---3--3----o||-------------|
|-0-0-0-0-0-0-0-0-0-0-0-|---0--0-----||-3-3--3-3----|
|-2-2-2-2-0-2-2-2-2-2-2-|---2--0-----||-2-2--2-2----|
|-3-3-3-3-0-2-2-2-2-2-2-|---3--2----o||-3-3--3-3----|
|-----------0---0-0-0---|------3-----||-------------|


 Guitar Solo
|-----------|---------------|------------|------------------|
|-----------|---------------|------------|------------------|
|-/7--------|----------7b9--|-4------0-2-|-2h3--0--0h2--0---|
|-----------|---------------|------------|------------------|
|-----------|---------------|------------|------------------|
|-----------|---------------|------------|------------------|


|-----------|--------------------|---------------|---------------------|
|-----------|--------------------|---------------|---------------------|
|-/7--------|-----7-x-7-x-7-7-7/-|-/12-----12-14-|-14/15-12--12/14-12--|
|-----------|--------------------|---------------|---------------------|
|-----------|-----5-x-5-x-5-5-5/-|-/10-----10-12-|-12/13-10--10/12-10--|
|-----------|--------------------|---------------|---------------------|


|--------------------------|-------------------------------|
|-8------------------------|-------------------------------|
|-7-7-7-5-5-5h7--7-7-7-5-5-|-5h7--7-7-7-5-5-5h7--7-7-7-5-5-|
|-5-5-5-5-5-5----5-5-5-5-5-|-5----5-5-5-5-5-5----5-5-5-5-5-|
|--------------------------|-------------------------------|
|--------------------------|-------------------------------|
|
| Gtr II
|--------------------------|-------------------------------|
|-8------------------------|-------------------------------|
|-7-7-7-5-5-5h7--7---7-5-5-|-5h7--7---7-5-5-5h7--7---7-5-5-|
|-5-5-5-5-5-5----5---5-5-5-|-5----5---5-5-5-5----5---5-5-5-|
|--------------------------|-------------------------------|
|--------------------------|-------------------------------|


|----------------------------|----------------------|
|----------------------------|----------------------|
|-5h7--7-7-7-5-5-7-x-x-12-14-|-14/15-12--12/14-12---|
|-5----5-5-5-5-5-5-x-x-------|----------------------|
|------------------x-x-10-12-|-12/13-10--10/12-10---|
|----------------------------|----------------------|
|
|----------------------------|----------------------|
|-8--------------------------|----------------------|
|-7----7---7-7-7-7-7---12-14-|-14/15-12--12/14-12---|
|-5----5---5-5-5-5-5---------|----------------------|
|----------------------10-12-|-12/13-10--10/12-10---|
|----------------------------|----------------------|


   Bridge
              1st-3rd      4th
    G          C9   D5       C    D5
                          4x
||-----------|------------||-----------------|
||o----------|------3----o||------3----------|
||-----------|-0----2-----||-0----2----------|
||--0--------|-x----0-----||-x----0----------|
||o-x--------|-3---------o||-3---------------|
||--3--------|------------||-----------------|
|
|                         4x
||-----------|------------||-----------------|
||o----------|-----------o||-----------------|
||-----------|------------||-----------------|
||-----------|------------||-----------------|
||o----------|-----------o||---------/5\-----|
||-----------|------------||-----------------|


 Verse 2
  G           B5        C7      D5
|---------------------|---------------------|
|---------------------|---------------------|
|-----4-x---x-----4-0-|-----3-0-----2h4p2p0-|
|-----x-x-x-x---------|---------0-0---------|
|-------x-x-x-2-2-----|-3-3-----------------|
|-3-3-----------------|---------------------|

  G           B5        C7      D5
|---------------------|----------------|
|---------------------|----------------|
|-----4-x---x-----4-0-|-----3-0-----2--|
|-----x-x-x-x---------|---------0-0-0--|
|-------x-x-x-2-2-----|-3-3------------|
|-3-3-----------------|----------------|

  G           B5        C7      D5
|---------------------|---------------------|
|---------------------|---------------------|
|-----4-x---x-----4-0-|-----3-0-----2h4p2p0-|
|-----x-x-x-x---------|---------0-0---------|
|-------x-x-x-2-2-----|-3-3-----------------|
|-3-3-----------------|---------------------|

  G           B5                Bb              D5
|-----------------------------|-----------------------|
|-----------------------------|-----------------------|
|-----4-4-4-4-4-4-4-4-4-4-4-4-|-3-3-3-3-3-3-3-3-------|
|-----------------------------|-----------------7-----|
|-------------2-2-2-2-2-2-2-2-|-1-1-1-1-1-1-1-1-5-----|
|-3-3-3-3-3-3-----------------|-----------------------|


   Chorus 2
    Em7       G           Em7       A7sus4
||----------------------|---------------------|
||o---3-3-3-3-3-3-3-3-3-|---3-3-3-3-3-3-3-3-3-|
||--0-0-0-0-0-0-0-0-0-0-|-0-0-0-0-0-0-0-0-0-0-|
||--2-2-2-2-2-0-0-0-0-0-|-2-2-2-2-2-2-2-2-2-2-|
||o-2-2-2-2-2-2-2-2-2-2-|-2-2-2-2-2-0-0---0-0-|
||--0---0-0---3-3---3---|-0---0-0-------------|

                         1st           2nd
  Cadd9     Em7             C9 G        C7
|-----------------------|------------||------------------|
|-3-3-3-3-3-3-3-3-3-3-3-|---3--3----o||------------------|
|-0-0-0-0-0-0-0-0-0-0-0-|---0--0-----||-3-3--3-3--3-3----|
|-2-2-2-2-0-2-2-2-2-2-2-|---2--0-----||-2-2--2-2--2-2----|
|-3-3-3-3-0-2-2-2-2-2-2-|---3--2----o||-3-3--3-3--3-3----|
|-----------0---0-0-0---|------3-----||------------------|


 Outro
|-------------------------10-----|----------------------|
|------------10h12p10------------|----------------------|
|-/12--14-12----------12------12-|-12--12----12-11-9-11-|
|------12------------------------|-10--10-10------------|
|--------------------------------|----------------------|
|--------------------------------|----------------------|

|-----------------------------------|----------------------|
|-----------10h12p10----10h12p10----|----------------------|
|-12--14-12----------12----------12-|-12--12----/14-11-----|
|-----12----------------------------|-10--10-10---------12-|
|-----------------------------------|----------------------|
|-----------------------------------|----------------------|

|-----------------------------|-----------------------|
|-----10----10h12p10----15----|-----------------------|
|-12-----12----------12-12-12-|-12--12----12-11-9-11--|
|-----------------------------|-10--10-10-------------|
|-----------------------------|-----------------------|
|-----------------------------|-----------------------|

|------------------------------|----------------------|-----------||
|------10----10h12p10----15----|----------------------|-----------||
|-/12-----12----------12-12-12-|-12--12----12-11-9-11-|-12--------||
|------------------------------|-10--10-10------------|--9--------||
|------------------------------|----------------------|-----------||
|------------------------------|----------------------|-----------||

============================================================================3. Underwater
============================================================================

Intro>
e|-----------------------------------------------------
b|-----------------------------------------------------
g|---7-----7-----7-----7---7-----7-----7---------------
d|---7-----7-----7-----7---7-----7-----7---------------
a|-5-----------5---------5-----------5---------3-4-(5)-
E|-----5-7---5-----5-7-------5-7---5-----5-6-7---------

Verses>
e|-----------------------------------------------------
b|-----------------------------------------------------
g|---7-----7-----4---6---7---3---6---9---7---3---4---6-
d|---7-----7-----3---5---7---3---5---9---7---3---3---5-
a|-5---------------------------------------------------
E|-----5-7---5-3---5---7---2---5---9---7---2---3---5---

e|--------------------------------
b|--------------------------------
g|---7-----7-----7----------------
d|---7-----7-----7----------------
a|-5-----------5---------3-4-(5)--
E|-----5-7---5-----5-6-7----------


CHANNEL>
d|--9---8---7---6-
a|-(9)-(9)-(7)-(7)
E|--7---6---5---4-


  D      G
e|---| |---|
b|---| |---|
g|-7-| |-2-|
d|-7-| |-0-|
a|-5-| |---|
E|---| |-3-|

D  G  D  G
D  G  D  (E|--2--0--|)


CHORUS>
   G      D      F#/A#   Bm7     A7     G7    
e|-5-|  |-2-|    |---|  |---|  |---|  |---|
b|-5-|  |-0-|    |---|  |---|  |---|  |---|
g|-0-|  |-2-|    |---|  |-7-|  |-6-|  |-4-|
d|-0-|  |-0-|    |-8-|  |-7-|  |-5-|  |-3-|
a|---|  |---|    |-9-|  |---|  |---|  |---|
E|-3-|  |---|    |-6-|  |-7-|  |-5-|  |-3-|

G  D  G  D  G  D
(F#/A#)  Bm7
A7  G7  A7 

CHANNEL>

BREAKDOWN>   Bm  D  G x3  then  F#7

CHORUS> +
Bm7  A7  G7    
Bm7  A7  G7
D  Bm7

Intro  riff

============================================================================
4. Edge Of My Seat
============================================================================

Drop-D

Intro:
e|--------------
B|--------------
G|----------2-0-
D|-2-3-0-2-3---0
A|--------------
D|-------------- 2x
Chords for the rest of Intro:
D(open) F D E F E D F 2x

Verse:
power chords
E G D G 3x
E G A
Pre-Verse 2:
e|-------------------
B|-------2-2------22-
G|--2-2-4-4--2-2-4--4
D|-4-4------4-4------
A|-------------------
D|-------------------
power chords for this part are like so:
F# A F# A 
B C# B C#
Verse 2:
power chords again
E G D G 3x
E G A
repeat the Pre-Verse 2 part only add these power chords:
E F D
E F A G D
Chorus:
F# A F# A
B C# B C#
F# A F# A
B C# B
then play the power chords that you use for the intro

============================================================================
5. Home
============================================================================

Chords
  G G/B Cadd9 Dsus D Em7 C B2 B Am7 Cadd9* Am7/D 
e|3  3    3    3   3  0  0 2  2  0    0      0
B|3  3    3    3   2  3  1 2  4  1    3      1
G|0  0    0    2   3  0  0 4  4  0    0      2
D|0  0    2    0   0  2  2 4  4  2    2      0
A|2  2    3    x   x  2  3 2  2  0    3      x
E|3  0    x    x   x  0  3 2  2  x    x      x 
Intro
e|------------------------------------------|
B|-------------------------0----------------|
G|-------2-0--------0--------0--------------|
D|-----0--------0-7-------------------------|
A|-----------------------7---------12-----0-|
E|---3-------/7-------/8-------/10----10----|do 2x
/=slide up 
G G/B Cadd9 Dsus D 2x
       G               G/B    Cadd9   Dsus  D 
It's a long way from Miami to LA
       G               G/B         Cadd9          Dsus  D      
It's a longer way from yesterday to where I am today
       G               G/B              Cadd9   Dsus  D
It's a long way from my thoughts to what I'll say
       G                  G/B         Cadd9        Dsus  D
It's a long, long way from paradise to where I am today 
     Em7             Cadd9*
All that's in my head is in your hands 

       G                G/B            Cadd9   Dsus  D
It's a long way from the moon up to the sun
       G          G/B             Cadd9            Dsus  D
It's a longer road ahead of me the road that I've begun
G               G/B         Cadd9   Dsus  D
Stop to think of all the time I've lost
      G                   G/B            Cadd9                  
Stop to think of all the bridges that I've burned that must be
   Dsus D
crossed 
 C   B2  B   C           B2 B
Over, over, over take me over 
Chorus
  Am7                                               D   Dsus
I've been poison, I've been rain, I've been fooled again
  Am7                                              Am/D?
I've seen ashes shine like chrome, someday I'll see home
G   G/B   Cadd9   Dsus  D 
Home
G   G/B   Cadd9   Dsus  D 
Home 
strum slower
G             G/B                Cadd9   Dsus  D 
I can see the stars from way down here
G                G/B              Cadd9   Dsus  D 
But I can't fall asleep behind the wheel  
strum fast again
       G               G/B          Cadd9   Dsus  D
It's a long way from my shadows in my cave
G          G/B       Cadd9            Dsus  D    C   
Up to your reality to watch the sunlight taking over
B2 B        C             B2  B
Over, taking over, take me over 
Chorus
For the string part just do G  G/B  Cadd9  Dsus  D 4x
     Em7             Cadd9*
All that's in my head is in your hands
Em7                Cadd9*
If it's in my head it's in your hands
Em7             Cadd9*
It's in my head it's in your hands 
G  G/B  Cadd9  Dsus  D 2x
End chords (they are strange and I don?t know the names of them so just play them like that in that order.)
e|--5--7--5--3--3--3
B|--5--7--5--5--5--3 
G|--5--7--5--5--5--0
D|--7--9--7--5--0--0
A|--x--x--x--x--x--2
E|--x--x--x--x--x--3 

Extra guitar parts 
Easier way to do intro
e|------------------------------------|
B|------------------------0-----------|
G|-------2-0------2-0-------0---2-----|
D|-----0-------0--------2-----0---0---|
A|-----------2--------3-------------0-|
E|---3--------------------------------| 

Bass part for Chorus 
E|-8---7----3-----|
  I've been poison
E|-8---7----3-----|
  I've been rain
E|-8---7----3------0-5--| or E|-8---7----3------0-3-H6-|  
  I've been fooled again       I've been fooled again
E|-8---7----3-----|
  I've seen ashes 
E|-8----7----3------|
  Shine like chrome
E|-8--7---3-----0--5---| or E|-8--7---3-----0--3-H6-|
  Someday I'll see home       Someday I'll see home 
There is a guitar doing this at the end during the chords listed above
e|-------5-------------5-H7---------5-H7-P5-------------------3-|
B|-----5---5---------5------------5----------8-P5-------------3-|
G|---5-------5--7-P5---------7-P5-----------------5-5-H7-5-4--0-|
D|------------------------------------------------------------0-|
A|-0----------------------------------------------------------2-|
E|------------------------------------------------------------3-|
H=hammer on
P=pull off 

============================================================================
6. Might Have Been Hur
============================================================================

Intro (with slight distortion) note: I believe that Jon doesn't change the
distortion at all but I don't have the right amp or any dis. pedal to find 
out.
e----------------------------------------------------------
B------------------5---------------5-----------------------
G------------6~~~~---6---------6h7------------6^(6)^(6)^(6)fade out
D---------------------(6)/7\6-------6-4--------------------
A-7harm----------------------------------------------------
E----------------------------------------------------------

Verse One

F#5 E5 D5 E5* 
F#5 E5 D5 D5
E5* E5* D5 D5 /F5*Hold 

Chorus
(Guitar and bass share the riff and it's hard to tell if the guitar is playing
the bass notes too because they are octaves so I included bass so you can play
the whole thing all by yourself!) note: keep high notes short and an optional
A5 can be played at the end of the F5* E5* lick instead of hitting the A bass
note 
 Riff One              
e--------------0---------------
B----2-------------------7-----
G------------------------------   F5* E5* 
D------2---------6---------7---
A-0--0-0--0/4--4-4--4/5--5-5--5 
E------------------------------
(Repeat Riff One) 
F5* E5* F5 G5 

G------4/7\6--
D-------------
A---7---------
E-5-----------

Solo
e-----------------------------------------------------------------
B------------5-------------5--------------------------------------
G-4-(4)/6~~~--6--------6h7----------------------------------------
D----------------6/7\6------6-4--/2-------7-9-10p9--7-/9--11~~~~~-
A-----------------------------------------------------------------
E-----------------------------------------------------------------

e---------------------------------------------------------------------------
B------------------------------10--10-(10)b12r10----------------------------
G-------9--9-(9)b11r9----9h11----------------------4-4^4-2-4-6-6^(6)^(6)^(6)
D-11h12------------------------------------------7--------------------------
A---------------------------------------------------------------------------
E---------------------------------------------------------------------------

Verse Two

F#5 E5 D5 E5* B-5/10
F#5 E5 D5 D5 E5* E5* D5 D5 /F5*Hold

Chorus

(Riff One) F5* E5* (Riff One) F5* E5* F5 G5 A5 A5
F5 G5 A5 A5 F5 G5 A5 A5
F5 G5
F5 G5
F5 G5 

G------4/7\6--
D-------------
A---7---------
E-5-----------

Outro

(Riff One) F5* E5* (Riff One) F5* E5* F5 G5  
G------4/7\6-4 
D-------------
A---7--------- A(Bar form w/ B and e strings muted)
E-5-----------

BIG note: Chords with an * after their name means that the chord is to be
played on the A string not the E string.

============================================================================7. Concrete Girl
============================================================================

e--------------------------------------------------------------
B------0-h1-0------0-h1-0------0-h1-0-----------------1p0------
G--------------------------------------------------0-------2---
D--------------------------------------------------------------
A---3-----------0-----------3--------------3-3--3--------------
E------------------------------------------1-1--1--------------
 this goes for all the verse's

chorus:(distortion)
E  B  A  C
E  B  A  C
C#  Ab  A  C
C#  Ab  F  E

============================================================================
8. Life And Love And Why
============================================================================

Intro>                           Verse>
e|-----------------------------|-------------------------|
b|----3------3------3------3---|----3------3-------------|
g|---0-0----0-0----0-0----0-0--|---0-0----0-0------4---3-|
d|--4---4--4---4--4---4--4---4-|--4---4--4---4-----------|
a|-----------------------------|-2------0---------5---4--|
e|-0------3-----0-------3------|-----------------3---2---|

e|-----------------------|
b|--------------0--------|
g|----------1h2---2-1----|
d|-7---7-------------0---|
a|-----0--------------0--|
e|-7---7--4------------0-|

e|----------------------
b|-3--2-----------------
g|-2--3--4--3-----------
d|----4--5--4----0---0--
a|-2--1--5--4---2---4---
e|-------3--2--3---2----

e|-----------7-------9-------------7-------6--
b|-3--3------------------3--3-----------------
g|-4--4--4--(4)--3--(6)--4--4--4--(4)--3--(3)-
d|-4--4--5-------4-------4--4--5-------4------
a|-2--0--5-------4-------2--0--5-------4------
e|-------3-------2-------------3-------2------

e|---------------
b|------------0--
g|-2--2--1-1h2-1-
d|-0--0--2-------
a|-2--0--2-------
e|---------------

Bm  F#/A#
G  F#  G  A


CHORUS>
(D  A  Bm  G) x2
 Bm  G  Bm  G  A

Then:
(D  G  D  A) x2
Bm (7997xx)  A# (6x46xx)
A (5x44xx)   G# (4x44xx)            
G  A  G  A

CHORUS>

End- play  Intro.

============================================================================
9. You
============================================================================

Am              F    
There's always something 
       Csus       G 
in the way 
Am              F             
There's always something 
       Csus       G      
getting through 
Am              F              
but it's not me 
      Csus       G
it's You, it's You 
      Csus       G     
Am              F   
i find peace when 
      Csus       G 
i'm confused 
Am              F
i find hope when 
       Csus       G   
i'm let down 
Am              F
not in me ... me 
  Csus       G
in You 
  Csus       G
it's in you 

Am              F
i hope to lose myself 
    Csus       G  
for good 
Am              F
i hope to find it in the end 
    Csus       G  
not in me ... me 
Am              F     
in You 
Csus       G     
in You 


C               Am
it's all that i know 
C               Am               
it's all that i know 
C               Am               
it's all that i know 
Am      
in You

============================================================================
10. Ode To Chin
============================================================================

A7- 5756XX OR X0202X G#5- 466XX A5-577XXX OR X022XX A/F#-2x2200
G#- 4665XX B5- 799XXX OR X244XX Em/F#-2x2200
C#5- X466XX E5-X799XX Eb5-X688XX C5-81010XXX OR X355XX

Intro
e-----------------
b-----------------
g-9-8-7-6-5-4-3-2
D-9-8-7-6-5-4-3-2
A-8-7-6-5-4-3-2-1
E-----------------
Verse 1: 

A7          G# 
What's your direction? 
C#5                   G#5
Tell me what's wrong, tell me what's right 
A7          G#
What's your direction? 
C#5                   G#5
Think about somebody else for the night 
A7          G#
Life's more than girls
C#5                   
God's more than words 
G#5
You're more than this 
A7          G#
So what's your direction? 
G#                   B5
And where are you now? 


Chorus:

E5                   A5   B5                        A5 B5 slide E5
Grow, grow where you are, anchor your roots underneath. 
A/F#           A5     E5      Eb5    E5
Doubt your doubts and believe your beliefs.

Riff 1

e----4-----------------4-----
b------4-5p4p2p0--------4-5--
g---4----------------4-------
D-2----------------2---------
A----------------------------
E----------------------------

Verse 2:
What's your direction? 
What matters most? 
What should you know? 
What's your direction 
All that you've been 
Makes who you are now 
'Cause I've been ashamed 
I've been a fool 
You know I've backed down 
When I lose direction I pray to be found 

Chorus again

Riff

Breakdown(Kinda drum solo)
E---------
B---------
G---------
D---------
A---------
E-----12/0

Guitar solo that moves really fast
E5 A5 E5 A5 E5 A5 C5 B5

Chorus

============================================================================
11. Don't Be There
============================================================================

Main Riff:                Fill:
   E      Amaj9
d|-----0--0----------|-   -|--------------|-
A|-----0--0----------|-   -|--------------|-
F|-----1--1----------|-   -|---------5/4--|-
C|-----2--2--h4--p2--|-   -|-----4h5-5/4--|-
G|-----2--0----------|-   -|-2h3----------|-
D|-0-0-0--0----------|-   -|--------------|-

Verse:
E       Amaj9   E       Amaj9
E       B       A      (Fill)
E       Amaj9   E       Amaj9
E       B       A       C

Chorus:
C#m     G#m     A       B
C#m     G#m     A       B
E       Amaj9   E       Amaj9

Post-Chorus:
E               D
C#m             C       B
E               D
C#m             C       B       A

Bridge:
C#m     B       E       C#m
D       B       E
A       B       E       C#m
D               B       C

============================================================================
NOTE: Decent album. Probably won't go platinum, but it's ok. Those 
      of you that drewl over this album; Pick it up and start playing.
      Well... ...ENJOY!!!
            
                       -Asa

       





















































comments
We did not receive enough feedback on this tab! Please rate:
print report bad tab
1 2 3 4 5
I want to post or [tab]
guest
You may want to rate the tab now too:
select rating
Please do not post tabs as comments. Select "correction" instead!