Oops, an error
Loading. Please wait.

The Legend Of Chin Tab

ver2
ver2

Album

More versions @911Tabs.com
749 views 3 this week
no commentswrite comment
1 2 3 4 5
excellent!
x 2
add to favorites launch autoscroll
font size
0
reset
Autoscroll
+/-
esc
set tempo
stop
Contributor
Difficulty
intermediate
WARNING: You are trying to view
                                    content from Ultimate-Guitar.com
                                    in an unauthorized application,
                                    which is prohibited.

                                    Please use an official Ultimate
                                    Guitar Tabs application for iPhone,
                                    iPad or Android to access legitimate
                                    chords, guitar, bass, and drum tabs
                                    from Ultimate-Guitar.com database.

                                    Type "ultimate guitar tabs" in Apple
                                    App Store's or Android Market's
                                    search to find the application.
=============================================================================
                           The Legend of Chin
=============================================================================
 Here's the second album tab of this album. This one is 100% correct. The effects
that are used in this album are: Dist.(he uses at least 2), Chorus, and some kinda
Contour effect, and a Wah pedal.
=============================================================================
1 Bomb-Standard Tuning
=============================================================================
     Intro(w/chorus)
e|---------------------------------------|
B|-----5~~~-----4~~~-----5---------------|
G|---54~45~----5~5~~---54~45---5----4----|
D|--5~~~~~5---6~~~6~--5~~~~--------------|
A|-3~~~~~~---6~~~~~6-3~~~~~---6~---5~----|
 E|----------4~~~~~~~~--------4~~4\3~~---|

  Verse 1(4x)(w/chorus and dis.)
e|-----------------------------------|-------------|
B|-----------------------------------|-------------|
G|-----------------------------------|-------------|
D|-(5)++5-(5)++++5-(5)++++5-(3)++++3-|-55555-33333-|
A|-(7)++7-(6)++++6-(5)++++5-(3)++++3-|-55555-33333-|
E|-(5)++5-(4)++++4-(3)++++3-(1)++++1-|-33333-11111-|

  Chorus
e|-0~--------------------------------------------|
B|-0~--------------------------------------------|
G|-x~--------------------------------------------|
D|-2~777\666666\555\333333-777\666666\555\333333-|
A|-2~xxx\xxxxxx\xxx\xxxxxx-xxx\xxxxxx\xxx\xxxxxx-|
E|-0-555\444444\333\111111-555\444444\333\111111-|

  Post-chorus 1(2x)
e|------------|
B|----------5~|
G|-7-8--9\5-4~|
D|-8-9-10\5-5~|
A|-5-6--7\3-3~|
E|------------|
  Verse
  2nd part(4x)                           Last Part
e|--------------------------------------|----------------|
B|--------------------------------------|----------------|
G|-xx--9--9~xxxx-8-9-xxxx-7-7-xx-7-xx-8-|-77777-77-5-5-5-|
D|-xx--7--7~xxxx-6-6-xxxx-5-5-xx-5-xx-6-|-55555-55-3-3-3-|
A|-xx--7--7~xxxx-6-6-xxxx-5-5-xx-5-xx-6-|-55555-55-3-3-3-|
E|--------------------------------------|----------------|

  Chorus
  Post-Chorus
  Gtr. 1  Gtr.2                       (2x) Then...
E|--------|-------------------------------|---------|
B|--------|-------------------------------|---------|
G|-7-8-9b/|-9-9xxxx-8-8-xxxx-7-7-xx-7-8-9\|-9999999-|
D|-x-x-x-/|-7-7xxxx-6-6-xxxx-5-5-xx-x-x-x\|-7777777-|
A|-5-6-7b/|-7-7xxxx-6-6-xxxx-5-5-xx-5-6-7\|-7777777-|
E|--------|-------------------------------|---------|

E|---------------------------------------------------------|
B|---------------------------------------------------------|
G|-xxxx--9-9-xxxx-8-8-xx-777-77777-55555-55555-44444-7-8---|
D|-xxxx--7-7-xxxx-6-6-xx-555-55555-77777-66666-55555-x-x-5~|
A|-xxxx--7-7-xxxx-6-6-xx-555-33333-77777-66666-55555-5-6---|
E|---------------------------------55555-44444-33333-------|
  Gtr 2(w/chorus)
E|-----------------------------------------------|
B|-----5~~~------4~~~-----5~~~---------5~5~5~5~5~|
G|---54~45~-----5~5~~---54~45~---5---4-4~4~4~4~4~|
D|--5~~~~~5----6~~~6~--5~~~~~5---------5~5~5~5~5~|
A|-3~~~~~~~---6~~~~~6-3~~~~~~~--6~--5~-3~3~3~3~3~|
E|-----------4~~~~~~~----------4~~\3~~-----------|
=============================================================================
2 Chem 6A-Standard Tuning
=============================================================================
  Intro(w/dis.)
e|------------------------------------------------------------------------|
B|------------------------------------------------------------------------|
G|-----4b0-------4b0-----3b0------2h4p2p0-----4-0xx-----4b0-----3b--------|
D|----------------------------0-0---------------xxx-----------------0-----|
A|-----------2-2-----3-3------------------------xxx-2-2-----3-3------5-12/|
E|-3-3------------------------------------3-3---xxx--------------------10/|
  Verse
e|------------------------------------------------------------------------|
B|------------------------------------------------------------------------|
G|-----4-0xx-----4b0-----3b0------2h4p2p0-----4-0xx-----4b0-----3b--------|
D|-------xxx------------------0-0---------------xxx-----------------0-----|
A|-------xxx-2-2-----3-3------------------------xxx-2-2-----3-3------5-12/|
E|-3-3---xxx------------------------------3-3---xxx--------------------10/|
  Pre-Chorus
e|------------------------------|
B|------------------------------|
G|-4-4-4-44-444-4-44-333-3-33---|
D|-0-0-0-00-xxx-x-xx-xxx-x-xx-7\|
A|-x-x-x-xx-222-2-22-333-3-33-5\|
E|-3-3-3-33---------------------|
  Chorus
e|-----------------------------------------------------------|
B|-----------------------------------------------------------|
G|-0-00-0-00-00-0000-0-00-0-00-00-0000-----------------------|
D|-2-22-2-22-00-0000-2-22-2-22-22-2222-5-5-5-55----------5-5-|
A|-2-22-2-22-22-2222-2-22-2-22-00-0000-3-3-3-33-5-5-5-55-3-5-|
E|-0-00-0-00-33-3333-0-00-0-00------------------3-3-3-33---3-|

e|------------------------------------------------------------------|
B|------------------------------------------------------------------|
G|-0-00-0-00-00-0000-0-00-0-00-00-0000-------------------3-3~-3-3~3~|
D|-2-22-2-22-00-0000-2-22-2-22-22-2222-5-5-5-55----------2-2~-2-2~2~|
A|-2-22-2-22-22-2222-2-22-2-22-00-0000-3-3-3-33-5-5-5-55-3-3~-3-3~3~|
E|-0-00-0-00-33-3333-0-00-0-00------------------3-3-3-33------------|
  Solo(w/Dis. and Wah)
e|---------------------------------------------------------------------|
B|---------------------------------------------------------------------|
G|-/7~-7/8-4~-3-0-0h2-0-/7~--7-77-777-7/12~-12-14-14/15-12-12-12/14-12-|
D|---------------------------5-55-555--------x--x--x/-x--x--x--x/-x--x-|
A|------------------------------------------10-12-12/13-10-10-10/12-10-|
E|---------------------------------------------------------------------|
              (4x)                Then...
e|------------|------------------|--------------------------------------|
B|------------|------------------|--------------------------------------|
G|-12----1212-|-12----12----1212-|-1212-1212-12-14-14/15-12-12-12/14-12-|
D|-10h12-1212-|-10h12-10h12-1212-|-1212-1212--x--x--x/-x--x--x--x/-x--x-|
A|-10----1010-|-10----10----1010-|-1010-1010-10-12-12/13-10-10-10/12-10-|
E|------------|------------------|--------------------------------------|
  Verse 2(4x)Then..
e|---------|----|
B|---------|----|
G|-----5~7~|----|
D|-5~~~----|----|
A|-----3~5~|-10/|
E|-3~~~----|----|
  Verse 2
  Pre-Chorus
  Chorus
  Outro
e|----------------------10-------------------|
B|----------10h12p10-------------------------|
G|/12-14-12----------12-----12~12~12-11-9-11-|
D|----12-----------------------10~-----------|
A|-------------------------------------------|
E|-------------------------------------------|

e|------------------------------------------------------|
B|----------10h12p10----10h12p10------------------------|
G|/12-14-12----------12----------12~12~-12-12/14-11-----|
D|----12----------------------------10~-10-----------12-|
A|------------------------------------------------------|
E|------------------------------------------------------|

e|----------------------10-------------------|
B|----------10h12p10-------------------------|
G|/12-14-12----------12-----12~12~12-11-9-11-|
D|----12-----------------------10~-----------|
A|-------------------------------------------|
E|-------------------------------------------|

e|----------------------10----------------------|
B|----------10h12p10----------------------------|
G|/12-14-12----------12-----12~12~12-11-9-11-12~|
D|----12-----------------------10~------------9~|
A|----------------------------------------------|
E|----------------------------------------------|
=============================================================================
3 Underwater-Standard Tuning
=============================================================================

Intro(w/Contour)
e|------------------------------------------------------|
B|------------------------------------------------------|
G|---7-----7-----7-----7---7-----7-----7----------------|
D|---7-----7-----7-----7---7-----7-----7-7/8/9/10/11/---|
A|-5-----------5---------5-----------5---x/x/x/-x/-x/---|
E|-----5-6---5-----5-6-------5-6---5-----5/6/7/-8/-9/10-|

  Verse (2x 2nd time w/dis.)
e|------------------------------------------------------|
B|------------------------------------------------------|
G|-------7----4----6--7/---4----6----9----7/---3--4---6-|
D|-12\---7----3-x--5--7/-xx3----5----9----7/---3--3-xx5-|
A|-12\----------x-x------xx-------------------------xx--|
E|-10\7-7--5-3--x-5---7--x3---555\9999---7---22--3--x5--|

e|-------------------------------------|
B|-------------------------------------|
G|---7-----7-----7---------------------|
D|---7-----7-----7------7/8/9/10/11/---|
A|-5-----------5--------x/x/x/-x/-x/---|
E|-----5-6---5----------5/6/7/-8/-9/10-|
  Channel
e|------------------------------------|
B|------------------------------------|
G|---------77-x-2~77-x-2~77-x-2~7-----|
D|-9~8~7~6~77-x-0~77-x-0~77-x-0~7-----|
A|-9~9~7~7~55-x-x-55-x-x-55-x-x-5-----|
E|-7~6~5~4~---x-3~-----3~-----3~--2~0~|
  Verse
  Chorus(Chorus)
e|-5~2~5~2~5~2~----------------|
B|-5~0~5~0~5~0~----------------|
G|-0~2~0~2~0~2~777/666/44444/6~|
D|-0~0~0~0~0~0~777/555/33333/5~|
A|-x---x---x---xxx-xxx-xxxxx-x-|
E|-3~--3~--3~--777/555/33333/5~|
  Verse
  Channel
  Piano Part then...
G|---3333-|
D|-444444-|
A|-444444-|
E|-222222-|
  Chorus(w/Chorus then dis.)
e|-5~2~5~2~5~2~------------------------------------------------|
B|-5~0~5~0~5~0~------------------------------------------------|
G|-0~2~0~2~0~2~777/666/44444/6-777/666/4444/6-777/666/4444/6~6~|
D|-0~0~0~0~0~0~777/555/33333/5-777/555/3333/5-777/555/3333/5~~~|
A|-x---x---x---xxx-xxx-xxxxx-x-xxx-xxx-xxxx-x-xxx-xxx-xxxx-x---|
E|-3~--3~--3~--777/555/33333/5-777/555/3333/5-777/555/3333/5~~~|

e|-----------------------------------------------------------------------|
B|-----------------------------------------------------------------------|
G|-7~77~7~77~7~77~7~77~7~77~7~77~7~77~7~77~7~77~7~77~7~77~7~77~7~77~7~77-|
D|-7~77~7~77~7~77~7~77~7~77~7~77~7~77~7~77~7~77~7~77~7~77~7~77~7~77~7~77-|
A|-5~55-x-xx-5~55-x-xx-5~55-x-xx-5~55-x-xx-5~55-x-xx-5~55-x-xx-5~55-x-xx-|
E|------6~66~-----6~66~-----6~66~-----6~66~-----6~66~-----6~66~-----6~66-|

e|-----------|
B|-----------|
G|-7/6/4/3-7~|
D|-7/5/3/2-7~|
A|-x-x-x-x-5~|
E|-7/5/3/2---|
=============================================================================
4 Edge of My Seat-Standard Tuning
=============================================================================
  Intro(Piano and Jon)
   Nothing more/That there's nothing more/Nothing more/That there's nothing more.
e|---------------------------------|
G|---------------------------------|(2x)
B|-7-10-7-9/10-9-7-5-7-10-7-9/10-9-|
D|-7-10-7-9/10-9-7-5-7-10-7-9/10-9-|
A|-5-8--5-7/8--7-5-3-5-8--5-7/8--7-|
E|---------------------------------|
  Verse(w/dis.)
e|---------------------------------------------|
G|---------------------------------------------|(2x)
B|---------------------------------------------|
D|-22-55-77-55-22-55-77-55-22-55-77-55-22-55-7-|
A|-22-55-55-55-22-55-55-55-22-55-77-55-22-55-7-|
E|-00-33-55-33-00-33-55-33-00-33-55-33-00-33-5-|
  Chorus 1(w/Chorus)             (w/dis.)
e|-------------------------------|-----|
G|-------------------------------|-----|
B|---------4~6~4~6-6~--------4~6~|---4-|
D|-9~8~9~8~----------9~8~9~8~----|---4-|
A|---------2~4~2~4-4~--------2~4~|-4\2-|
E|-7~6~7~6~----------7~6~7~6~----|-----|
  Verse
  Pre-Chorus(w/clean)
e|-----------------|
G|-----------------|
B|-2-3-0-2-3-5-7-0~|
D|-----------------|
A|-----------------|
E|-----------------|
  Chorus 2(w/dis.)
e|----------------------------------|-----------------------------|
G|----------------------------------|-----------------------------|
B|-9999-8888-999-8-8-4-4/6-44---6-6-|-9999-8888-999-8-8-4-4/6---4-|
D|-9999-9999-999-9-9-5-5/7-55-x-7-7-|-9999-9999-999-9-9-5-5/7---4-|
A|-7777-6666-777-6-6-5-5/7-55-x-7-7-|-7777-6666-777-6-6-5-5/7-4\2-|
E|-------------------3-3/5-33-x-5-5-|-------------------3-3/5-----|
  Intro(w/Chorus)
  Solo(w/Chorus and dis.)
e|--------------------------|
G|--------------------------|
B|-7~7~7-10\7~7-12\7~7-10\7~|
D|--------------------------|
A|------------5-10\5~5--8\5~|
E|--------------------------|

e|------------------------------------------------------------------------|
G|------------------------------------------------------------------------|
B|------------------------------------------------------------------------|
D|---11-12--10h12p10--11-12--10h12p10--11-12--10h12p10--11-12/16bbbb16-12-|
A|--9------8---------9------8---------9------8---------9------------------|
E|-7------6---------7------6---------7------6---------7-------------------|

e|----------------------------------------------------------------|
G|-----------------------------------------10-xx-10-xx-10-xx-1010-|
B|-----------------------------------------9--xx--9-xx--9-xx--9-9-|
D|-9/5/999-7-9-9/5/999-7-9-9/5/999-7-9-9/5-7--xx7-7-x---7-xx--7-7-|
A|----------------------------------------------------------------|
D|----------------------------------------------------------------|
  Chorus 2(2x)
  Intro
  End
=============================================================================
5 Home-Standard
=============================================================================
  Intro
e|-------------------------|--------------------------|
B|-------------------------|--------------------------|
G|---2-0-----0----0--------|---2-0-----0-----0--------|
D|--0-----0-7----9---------|--0-----0-7-----9---------|
A|--------------7-----9--0-|---------------7-----9-9\-|
E|-3----/7----/8---/10-10--|-3----/7-----/8---/10-10\-|
  Riff 1
e|----------------------------|
B|--333----333--33-3-3-33-3-3-|
G|--000----000--00-0-2-22-2-0-|
D|--000----000--xx------------|
A|--xxx-0h2~~~h3--------------|
E|-3~~~~~---------------------|
  Verse 1
Riff 1
It's a long way from Miami to LA
Riff 1
It's a long way from where I used to be to where I am today
Riff 1
It's a long way from my thoughts to what I'll say
Riff 1
It's a long way from paradise to where I am today

  Interlude-Elec.(w/Chorus)
e|-0~~~~~~~~~~~~~~~~~~~3~~~~~~~~~~~~~~~|
B|-3~~~~~~~~~~~~~~~~~~~3~~~~~~~~~~~~~~~|
G|-0~~~~~~~~~~~~~~~~~~~0~~~~~~~~~~~~~~~|
D|-2~~~~~~~~~~~~~~~~~~~2~~~~~~~~~~~~~~~|
A|-2~~~~~~~~~~~~~~~~~~~3~~~~~~~~~~~~~~~|
E|-------------------------------------|
  All that's in my head is in Your head

  Riff 1
  Verse 2
Riff 1
It's a long way from the moon up to the sun
Riff 1
It's a longer road ahead of me the road that I've begun
Riff 1
Stop to think of all the time I've lost
Riff 1
Stop to think of all the bridges that I've burned that must be crossed
  Pre-Chorus-Elec.(w/Chorus)
e|-0~2~0~2~|
B|-1~2~1~2~|
G|-2~2~0~2~|
D|-0~4~2~4~|
A|-3~4~3~4~|
E|---2~--2~|
  Over,over,over take me over
  Chorus                         Then play first part again
e|------------------------------|---------------|
B|-13-12-8-5~13-12-8~13-12-8-10-|-77/8--88-8/10-|
G|------------------------------|---------------|
D|-10--9-5-2~10--9-5~10--9-5--7~|-4-4/5-55-5/-7-|
A|------------------------------|---------------|
E|------------------------------|---------------|
  I've poisoned/I've been rain/I've been fooled again/I've seen ashes
Shine like chrome/Some day I'll see home

   Bridge 1
   Riff 1
   Home

    I can see the stars from way down here
    But I can't fall asleep behind the wheel

   Verse 3
Riff 1
It's along way from the shadows of my cave
Riff 1
Up to Your reality to watch the sunlight taking over

  Pre-Chorus
  Chorus
  Bridge 2(2x)
e|-------------------------|
B|-333-333-333-333-333-333-|
G|-000-000-000-000-000-000-|
D|-000-000-000-000-xxx-xxx-|
A|-xxx-xxx-xxx-xxx-333-333-|
E|-000-000h333-333---------|
  End(play interlude 2x)
  Riff 1(x2)

  Gtr.3-Classical(Picks,Gtr.1 strums this)
e|----5----5/7---5-5-7-5-------3~|
B|---5----7-----5-5-----5------3~|
G|--5----7-----5---------5-0---0~|
D|-7----9-----7-------------0--0~|
A|---------------------------0-x~|
E|-----------------------------3~|
=============================================================================
6 Might Have Ben Hur-Standard Tuning
=============================================================================
  Intro(w/ Contour and dis.)
e|------------------------------------|
B|-5-5---5-----------5----------------|
G|-----6~-6-------4/6-------6^6^6^6^6-|
D|---------6h7p6~-----4h6p4-----------|
A|------------------------------------|
E|------------------------------------|
  Verse(w/dis.)
e|------------------------|--------------------------------------------|
B|------------------------|--------------------------------------------|
G|--------------7777-9999-|--------------77777777-99999999-77777777-10~|
D|-4-4444-2222--7777-9999-|-4-4444-2222--77777777-99999999-77777777-10~|
A|-4-4444-2222\55555-7777-|-4-4444-2222\555555555-77777777-55555555-8~~|
E|-0-2222-0000------------|-0-2222-0000--------------------------------|
P.M.|                  P.M.|-|
  Chorus(2x)                                After ending
e|----------0~-----------------------------|-------------------------|
B|--2~--------------7~---------------------|-------------------------|
G|---------------------10-101010-1010--999-|---------------4\7/6-----|
D|---2-------6-------7-10-101010-1010--999-|-33333\555---------------|
A|-0-0-0-2\4-4-4-4\5-5\8--8-8-8--8-8-8/777-|-33333\555-0-7-----------|
E|-----------------------------------------|-11111\333---------------|
P.M.||----|  |-------------------------------------------------------|
  Solo
e|------------------------------------------------------------------------|
B|-------5~---------5--------------------------------------------10\12-10-|
G|-4-4\6~-6------6h7----------------------------------9-9-11-9-11---------|
D|---------6h7p6~----4h6p4-2~\7-9-10-9-7-9-7-7\11~9h11--------------------|
A|------------------------------------------------------------------------|
E|------------------------------------------------------------------------|

e|---------------------------------------|
B|---------------------------------------|
G|---------------------------------------|
D|-7h9-10-9-7-9-7-7\11-11^11^11^11^11^11-|
A|---------------------------------------|
E|---------------------------------------|

  Acoustic
e|-0~|
B|-0~|
G|-2~|
D|-2~|
A|-0~|
E|---|

  Verse
  Chorus
  Post Chorus
e|-------------------------------------------------------------------------|
B|-------------------------------------------------------------------------|
G|-------------------------------------------------------------------------|
D|-333-33\555-55\77777777\333-33\555-55\77777777\333\5555\333\5555\333\555-|
A|-333-33\555-55\77777777\333-33\555-55\77777777\333\5555\333\5555\333\555-|
E|-111-11\333-33\55555555\111-11\333-33\55555555\111\3333\111\3333\111\333-|

e|-----------------|
B|-----------------|
G|-------4\7\6-4-2-|
D|-5---------------|
A|-5-0-7-----------|
E|-3---------------|
 Chorus
 End on
e|---|
B|---|
G|-2~|
D|-2~|
A|-0~|
E|-0~|
=============================================================================
7 Concrete Girl-Standard Tuning
=============================================================================
  Verse(w/Chorus)2x
e|--------------------------------------------------------------|
B|--------------------------------------------------------------|
G|--4h5p4~-4h5p4~-----4h5p4~-----5p4-2p0-4h5p4~-4h5p4~4h5p4~----|
D|--------------------------3-3-2---------------------------3~3~|
A|-3~-----0~----------------3-3---------3~----------------------|
E|-------------------3~-----1-1----------------4~----3~-----4~3~|
  Pre-Chorus(w/dis.)
e|---------------------------------------------|
B|---------------------------------------------|
G|-9-9---------------9-9-----------------------|
D|-9-9-9-9--7-7/1010-9-9-9-9--7-7-7-7/10101010-|
A|-7-7-9-9--7-7/1010-7-7-9-9--7-7-7-7/10101010-|
E|-----7-7--5-5/-8-8-----7-7--5-5-5-5/-8-8-8-8-|
  Chorus(2x)                          Then...
e|-----------------------------------|------|
B|-----------------------------------|------|
G|-131313\8-8-8-8-8/9-9-9/1212121212-|------|
D|--x-x-x\x-x-x-x-x/x-x-x/-x-x-x-x-x-|-3~~~~|
A|-111111\6-6-6-6-6/7-7-7/1010101010-|------|
E|--9-9-9\4-4-4-4-4/5-5-5/-8-8-8-8-8-|-4~\3~|
  Verse
  Pre-Chorus
  Chorus(1st prt 3x)
  Bridge(2x)                                   Then...
e|--------------------------------------------|---------------x-|
B|--------------------------------------------|---------------x-|
G|---5~4-5~-----------------------------------|--4h5p4~-4h5p4~x-|
D|---------3-5/7-5--7/9-7--9b9-7--3-5/7-5-7\5-|---------------x-|
A|-3~-------3-----5------7------7\-3-----5----|-3~-----3~-----x-|
E|--------------------------------------------|---------------x-|

e|------------------------------------------------------------------------|
B|------------------------------------------------------------------------|
G|-44445444-44445444-44445444-------4h5p4-2p0-444445444-44445444-44445444-|
D|-55555555-22222222-xxxxxxxx-3-3--2----------222222222-xxxxxxxx-xxxxxxxx-|
A|-33333333-00000000-55555555-3-3-------------000000000-66666666-55555555-|
E|-------------------33333333-1-1-----------------------44444444-33333333-|
  Pre-Chorus
  Chorus
  Bridge
  End with verse riff
=============================================================================
8 Life and Love and Why-Standard Tuning
=============================================================================
  Intro(w/clean)
e|-----------------------------------------------------|
B|----3------3------3------3------3------3-------------|
G|---0-0----0-0----0-0----0-0----0-0----0-0---4--4\3-3-|
D|--4---4--4---4--4---4--4---4--4---4--4---4-----5\4-4-|
A|-----------------------------2------0--------5-5\4-4-|
E|-0------3------0------3-------------------3~---------|
  Verse 1(2x)
e|---------------------|
B|----3-----3----------|
G|---0-0---0-0--4--4\3~|
D|--4---4-4---4----5\4~|
A|-2-----0-------5-5\4~|
E|-------------3-------|

e|---------------------------------------|
B|-------------------------------0-------|
G|-2-2-2-2-2-2-2-2-2-2-2-2-1~-1h2-2-1----|
D|-----------------------------------0---|
A|-2-2-2-2-2-2-0-0-0-0-0-0-2~---------0--|
E|-------------------------------------0-|
  (w/dis.)
e|-------22222----------------------|
B|-------22222----------------------|
G|-44444-33333----------------------|
D|-44444-44444-55555-44444----0--0--|
A|-22222-------55555-44444---2--4---|
E|-------------33333-22222--3--2----|
  Verse 2
  Gtr.1
e|-------------------------------------------|
B|-------33333----------------33333----------|
G|-44444-44444---4b--6b-44444-44444---4b--3b-|
D|-44444-44444-5---4----44444-44444-5---4----|
A|-22222-00000-5---4----22222-00000-5---4----|
E|-------------3---2----------------3---2----|
  Gtr.2
e|---------------7b--9b---------------7b--9b-|
G|-------------------------------------------|
B|-------------------------------------------|
D|-------------------------------------------|
A|-------------------------------------------|
E|-------------------------------------------|
  Gtr.1
e|-------------------------------|
B|-------------------------------|
G|-222222222222111111h2222111111-|
D|-00000000000022222222222222222-|
A|-22222200000022222222222222222-|
E|-------------------------------|

e|------------22222---------------------------------|
B|------------22222---------------------------------|
G|-44444-xxxx-33333-xxxx-------xxxx-----------------|
D|-44444-xxxx-44444-xxxx-55555-xxxx-44444555577777--|
A|-22222-xxxx-------xxxx-55555-xxxx-44444555577777--|
E|-------xxxx-------xxxx-33333-xxxx-22222333355555--|
  Chorus(2x)
e|-----------------------------------|
B|-----------------------------------|
G|-777777777-------------------------|
D|-777777777777777779999999955555555-|
A|-555555555777777779999999955555555-|
E|----------555555557777777733333333-|
  Post-Chorus
e|-----------------------------------------------|
B|-----------------------------------------------|
G|-4444-444444-------------4444-4-4444-----------|
D|-4444-444444-44-44-44-44-4444-4-4444-5555-7777-|
A|-2222-222222-44-44-44-44-2222-2-2222-5555-7777-|
E|-------------22-22-22-22-------------3333-5555-|
  Bridge 1
e|-----------------------------------------|
B|-----------------------------------------|
G|-7777------7777------7777------7777------|
D|-7777-5555-7777-7777-7777-5555-7777-7777-|
A|-5555-5555-5555-7777-5555-5555-5555-7777-|
E|------3333------5555------3333------5555-|

e|-------------------------------------------------------|
B|-------------------------------------------------------|
G|--7---6-4---4------------------------------------------|
D|--7---4-4---4--555555555-777777777-555555555-777777777-|
A|---------------555555555-777777777-555555555-777777777-|
E|-7-7/6-5-5/4-0-333333333-555555555-333333333-555555555-|
  Chorus
  Bridge 2 (Gtr.1 plays Chorus 4x while Gtr.2 plays this 4x)
e|--------------------------------------------------------|
B|--------------------------------------------------------|
G|-7777-7/9/11/66666666/77777-7/9/11/1212121212121212/9/7-|
D|--------------------------------------------------------|
A|-5555-5/7/-9/44444444/55555-5/7/-9/1010101010101010/7/5-|
E|--------------------------------------------------------|
  (After the 4th one...)
D|---0--0-|
A|--2--4--|
E|-3--2---|

  Outro
e|-----------------------------------------------------------|
B|----3------3------3------3------3------3-----3-------------|
G|---0-0----0-0----0-0----0-0----0-0----0-0---0-0----4---3-4~|
D|--4---4--4---4--4---4--4---4--4---4--4---4-4---4---------4~|
A|--------------------------------------------------5---4--2~|
E|-0------3------0------3------0------3-----0------3---2-----|
=============================================================================
9 You-Standard Tuning
=============================================================================
Intro
Am F Csus G(2x)
Verse
Am F Csus G(bunch 'o times)
Chorus
C Am(3x)
Verse
Chorus
Bridge(Use's chorus chords)
Verse
Bridge(fade out)
=============================================================================
10 Ode to Chin-Standard Tuning
=============================================================================
  Intro
e|-----------------|
B|-----------------|
G|-9\8\7\6\5\4\3\2-|
D|-7\6\5\4\3\2\1\0-|
A|-7\6\5\4\3\2\1\0-|
E|-----------------|
  Verse(4x w/ dis.)
e|---------------------------------------------|
B|---------------------------------------------|
G|----------------------66666666666------------|
D|-5-55-55-4-44444-44-4-66666666666-6666666666-|
A|-6-66-66-3-33333-33-3-44444444444-6666666666-|
E|-5-55-55-4-44444-44-4-------------4444444444-|
  Pre-Chorus
e|------|
B|------|
G|------|
D|-7~/9~|
A|-7~/9~|
E|-5~/7~|
  Chorus
e|-------------------------------------------------------------------------|
B|-------------------------------------------------------------------------|
G|-9-9-9-9-9-9-------------6-6-6-6-6-6-------------------------------------|
D|-9-9-9-9-9-9-7-7-7-7-7-7-6-6-6-6-6-6-7-7-7/9-9-9\2-2-2-2-2-2/7-7-7-7-7-7-|
A|-7-7-7-7-7-7-7-7-7-7-7-7-4-4-4-4-4-4-7-7-7/9-9-9\2-2-2-2-2-2/7-7-7-7-7-7-|
E|-0-0-0-0-0-0-5-5-5-5-5-5-------------5-5-5/7-7-7\0-0-0-0-0-0/5-5-5-5-5-5-|

e|-------|
B|-------|
G|-9-8-9-|
D|-9-9-9-|
A|-7-6-7-|
E|-------|
  Post-Chorus
E|--0h4-----------|
B|-----4-5-4h5p4--|
G|--------------4-|
D|-2--------------|
A|----------------|
E|----------------|
  Verse
  Chorus
  Post-Chorus
  Bridge(2x)
E|--------------------------------------------|
B|------9999------9999------9999--------------|
G|-9999-8888-9999-8888-9999-8888-7-7777-7-7-7-|
D|-9999-7777-9999-7777-9999-7777-5-5555-5-5-7-|
A|-7777------7777------7777------3-3333-3-3-5-|
E|--------------------------------------------|
  Post-Chorus(4x)
  Chorus
=============================================================================
11 Don't Be There-Tuned Down One Step(DGCFAD)
=============================================================================
  Intro/Riff 1              Fill
d|-----0--0----------|-   -|---------------|
A|-----0--0----------|-   -|---------------|
F|-----1--1----------|-   -|---------5/4---|
C|-----2--2--h4--p2--|-   -|-----4h5-5/4---|
G|-----2--0----------|-   -|-2h3-----------|
D|-0-0-0--0----------|-   -|---------------|

Verse:
E       Amaj9   E       Amaj9
E       B       A      (Fill)
E       Amaj9   E       Amaj9
E       B       A       C

Chorus:
C#m     G#m     A       B
C#m     G#m     A       B
E       Amaj9   E       Amaj9

Post-Chorus:
E               D
C#m             C       B
E               D
C#m             C       B       A

Bridge:
C#m     B       E       C#m
D       B       E
A       B       E       C#m
D               B       C
=============================================================================

   I know the last song isn't right but I'll tab it as soon as I see this up on the tab 
So enjoy and watch out for the New Way to Be Human album tab.
     Peace
          -J
comments
We did not receive enough feedback on this tab! Please rate:
1 2 3 4 5
I want to post or [tab]
guest
You may want to rate the tab now too:
select rating
Please do not post tabs as comments. Select "correction" instead!