Oops, an error
Loading. Please wait.

Teras Tab

ver1
ver1

Solo

Whole song

More versions @911Tabs.com
18,245 views 57 this week
5 commentsread comments
1 2 3 4 5
excellent!
x 12
Autoscroll
+/-
esc
set tempo
stop
Contributor
Difficulty
intermediate
WARNING: You are trying to view
                                    content from Ultimate-Guitar.com
                                    in an unauthorized application,
                                    which is prohibited.

                                    Please use an official Ultimate
                                    Guitar Tabs application for iPhone,
                                    iPad or Android to access legitimate
                                    chords, guitar, bass, and drum tabs
                                    from Ultimate-Guitar.com database.

                                    Type "ultimate guitar tabs" in Apple
                                    App Store's or Android Market's
                                    search to find the application.
----------------------------------------------------------------------------
                             Teras - Sylosis
----------------------------------------------------------------------------
Tabbed by: kyron brook
Email: kyron-tbdm@hotmail.co.uk

Tuning: standard E

The song is in E Harmonic Minor except for the slow section towards the end which is 
E Aolean (standard minor scale) and The outro section is an elaboration on the main riff.
i have worked the whole song out by ear, so sorry if there are any mistaches :) if you 
a cover that i have done, this is the link to my video. be sure to heck it out :)
http://www.youtube.com/watch?v=0MZN1KyDzwI
there anr't any tabs on the whole song so i thought i would do the hounor :)


e|-------------------------------------------------------------------------|
B|-------------------------------------------------------------------------|
G|-------------------------------------------------------------------------|
D|-2-----------------------------------------------------------------------|
A|-2-------------------------------------------------3---2-----------------|
E|-0-000-000-000-0-000-0-000-000-3h5p3-000-2h3p2-000--323-323--------------|
     *** *** *** * *** * *** ***       ***       ***  *** ***
e|-------------------------------------------------------------------------|
B|-------------------------------------------------------------------------|
G|-------------------------------------------------------------------------|
D|-2------------------------------------------------2----------------------|
A|-2-----------------------------7---6----232-2-----2----------------------|
E|-0-000-000-000-0-000-0-000-000--535-535----5-532--0----------------------|
     *** *** *** * *** * *** ***  *** ***
e|-------------------------------------------------------------------------|
B|-------------------------------------------------------------------------|
G|-------------------------------------------------------------------------|
D|-2---------------------------------2-------------------------------------|
A|-2---------------------------------2--------------32--2------------------|
E|-0-0-0-0-0-0-0-0-0-0-0-0-0-0-0-000-0--0-0-0-0-0-0---53-532---------------|
     * * * * * * * * * * * * * * ***    * * * * * *
e|-------------------------------------------------------------------------|
B|-------------------------------------------------------------------------|
G|-------------------------------------------------------------------------|
D|-2---------------------------------2-------------------------------------|
A|-2---------------------------------2-------------------------------------|
E|-0-0-0-0-0-0-0-0-0-0-0-0-0-0-0-000-0--0-0-0-0-0-0--5h8p5-0000-11h14p11---|
     * * * * * * * * * * * * * * ***    * * * * * *        ****

e|-------------------------------------------------------------------------|
B|-------------------------------------------------------------------------|
G|------------9-8----------------------------------------------------------|
D|------2-----9-8-----10-9-----5-4-----------------------------------------|
A|------2-----7-6-----10-9-----5-4-----------------------------------------|
E|-0000-0-0-0-----0-0-8--7-0-0-3-2--3-2-3-5--------------------------------|
   ****   * *     * *      * *      * * * *
e|-------------------------------------------------------------------------|
B|-------------------------------------------------------------------------|
G|-------9-8---------------------------------------------------------------|
D|-2-----9-8-----10-9------------------------------------------------------|
A|-2-----7-6-----10-9---------32--2----------------------------------------|
E|-0-0-0-----0-0-8--7-0-0-0-0---53-532-------------------------------------|
     * *     * *      * * * *

Sweep solo rhythm
e|-------------------------------------------------------------------------|
B|-------------------------------------------------------------------------|
G|-----------8-------------------8-----------------------------------------|
D|-2----5----8---------2----5----8-----------------------------------------|
A|-2----5----6---------2----5----6-----------------------------------------|
E|-0----3--------------0----3----------------------------------------------|

Sweep solo lead
e|---19-15------------------15-19-15-----24-19------19-24-19-------19-24---|
B|--------17--------------17--------17--------20--20---------20--20--------|
G|----------16----------16------------16--------21-------------21----------|
D|------------17------17---------------------------------------------------|
A|--------------19-14------------------------------------------------------|
E|-------------------------------------------------------------------------|
T                                        T
e|-18-14-----------------14-18T19-18-14-18-14-----------------14-18-14-----|
B|------16-------------16--------------------16-------------16--------16---|
G|--------15---------15------------------------15---------15------------15-|
D|----------16-----16----------------------------16-----16-----------------|
A|------------18-11--------------------------------18-11-------------------|
E|-------------------------------------------------------------------------|

e|---19-15------------------15-19-15-----24-19------19-24-19-------19-24---|
B|--------17--------------17--------17--------20--20---------20--20--------|
G|----------16----------16------------16--------21-------------21----------|
D|------------17------17---------------------------------------------------|
A|--------------19-14------------------------------------------------------|
E|-------------------------------------------------------------------------|

e|-18-14-----------------14-18T19-18-14-18-14-----------------14-18t1918-14-19|
B|------16-------------16--------------------16-------------16----------------|
G|--------15---------15------------------------15---------15------------------|
D|----------16-----16----------------------------16-----16--------------------|
A|------------18-11--------------------------------18-11----------------------|
E|----------------------------------------------------------------------------|

e|-------------------------------------------------------------------------|
B|-------------------------------------------------------------------------|
G|-------------------------------------------------------------------------|
D|-------------------88888888----------------------------------------------|
A|-22222222-55555555-66666666--5h6p5--5h6p5--------------------------------|
E|-00000000-33333333----------------65-----65------------------------------|
   ******** ******** ********       **     **

e|-------------------------------------------------------------------------|
B|-------------------------------------------------------------------------|
G|-------------------------------------------------------------------------|
D|-------------------88888888----------------------------------------------|
A|-22222222-55555555-66666666--5h6p5--5h6p5--------------------------------|
E|-00000000-33333333----------------65-----65------------------------------|
   ******** ******** ********       **     **

e|-------------------------------------------------------------------------|
B|-------------------------------------------------------------------------|
G|-------------------------------------------------------------------------|
D|-2-----------------------------------------------------------------------|
A|-2-------------------------------------------------3---2-----------------|
E|-0-000-000-000-0-000-0-000-000-3h5p3-000-2h3p2-000--323-323--------------|
     *** *** *** * *** * *** ***       ***       ***  *** ***
e|-------------------------------------------------------------------------|
B|-------------------------------------------------------------------------|
G|-------------------------------------------------------------------------|
D|-2-----------------------------------------------------------------------|
A|-2-----------------------------7---6----232-2----------------------------|
E|-0-000-000-000-0-000-0-000-000--535-535----5-532-------------------------|
     *** *** *** * *** * *** ***  *** ***
e|-------------------------------------------------------------------------|
B|-------------------------------------------------------------------------|
G|-------------------------------------------------------------------------|
D|-------------------------------------------------------------------------|
A|-------------------------------------------------3---2-------------------|
E|-000-000-000-0-000-0-000-000-3h5p3-000-2h3p2-000--323-323----------------|
   *** *** *** * *** * *** ***       ***       ***  *** ***
e|-------------------------------------------------------------------------|
B|-------------------------------------------------------------------------|
G|-------------------------------------------------------------------------|
D|-2-----------------------------------------------------------------------|
A|-2-----------------------------7---6----232-2----------------------------|
E|-0-000-000-000-0-000-0-000-000--535-535----5-532-------------------------|
     *** *** *** * *** * *** ***  *** ***


e|-------------------------------------------------------------------------|
B|-------------------------------------------------------------------------|
G|-------------------------------------------------------------------------|
D|-2---------------------------------2-------------------------------------|
A|-2---------------------------------2--------------32--2------------------|
E|-0-0-0-0-0-0-0-0-0-0-0-0-0-0-0-000-0--0-0-0-0-0-0---53-532---------------|
     * * * * * * * * * * * * * * ***    * * * * * *
e|-------------------------------------------------------------------------|
B|-------------------------------------------------------------------------|
G|-------------------------------------------------------------------------|
D|-2---------------------------------2-------------------------------------|
A|-2---------------------------------2-------------------------------------|
E|-0-0-0-0-0-0-0-0-0-0-0-0-0-0-0-000-0--0-0-0-0-0-0--5h8p5-0000-11h14p11---|
     * * * * * * * * * * * * * * ***    * * * * * *        ****

e|-------------------------------------------------------------------------|
B|-------------------------------------------------------------------------|
G|------------9-8----------------------------------------------------------|
D|------2-----9-8-----10-9-----5-4-----------------------------------------|
A|------2-----7-6-----10-9-----5-4-----------------------------------------|
E|-0000-0-0-0-----0-0-8--7-0-0-3-2--3-2-3-5--------------------------------|
   ****   * *     * *      * *      * * * *
e|-------------------------------------------------------------------------|
B|-------------------------------------------------------------------------|
G|-------9-8---------------------------------------------------------------|
D|-2-----9-8-----10-9------------------------------------------------------|
A|-2-----7-6-----10-9---------32--2----------------------------------------|
E|-0-0-0-----0-0-8--7-0-0-0-0---53-532-------------------------------------|
     * *     * *      * * * *

Sweep solo rhythm
e|-------------------------------------------------------------------------|
B|-------------------------------------------------------------------------|
G|-----------8-------------------8-----------------------------------------|
D|-2----5----8---------2----5----8-----------------------------------------|
A|-2----5----6---------2----5----6-----------------------------------------|
E|-0----3--------------0----3----------------------------------------------|

Sweep solo lead
e|---19-15------------------15-19-15-----24-19------19-24-19-------19-24---|
B|--------17--------------17--------17--------20--20---------20--20--------|
G|----------16----------16------------16--------21-------------21----------|
D|------------17------17---------------------------------------------------|
A|--------------19-14------------------------------------------------------|
E|-------------------------------------------------------------------------|
T                                        T
e|-18-14-----------------14-18T19-18-14-18-14-----------------14-18-14-----|
B|------16-------------16--------------------16-------------16--------16---|
G|--------15---------15------------------------15---------15------------15-|
D|----------16-----16----------------------------16-----16-----------------|
A|------------18-11--------------------------------18-11-------------------|
E|-------------------------------------------------------------------------|

e|---19-15------------------15-19-15-----24-19------19-24-19-------19-24---|
B|--------17--------------17--------17--------20--20---------20--20--------|
G|----------16----------16------------16--------21-------------21----------|
D|------------17------17---------------------------------------------------|
A|--------------19-14------------------------------------------------------|
E|-------------------------------------------------------------------------|

e|-18-14-----------------14-18T19-18-14-18-14-----------------14-18t1918-14-19|
B|------16-------------16--------------------16-------------16----------------|
G|--------15---------15------------------------15---------15------------------|
D|----------16-----16----------------------------16-----16--------------------|
A|------------18-11--------------------------------18-11----------------------|
E|----------------------------------------------------------------------------|

e|-------------------------------------------------------------------------|
B|-------------------------------------------------------------------------|
G|-------------------------------------------------------------------------|
D|-------------------88888888----------------------------------------------|
A|-22222222-55555555-66666666--5h6p5--5h6p5--------------------------------|
E|-00000000-33333333----------------65-----65------------------------------|
   ******** ******** ********       **     **

e|-------------------------------------------------------------------------|
B|-------------------------------------------------------------------------|
G|-------------------------------------------------------------------------|
D|-------------------88888888----------------------------------------------|
A|-22222222-55555555-66666666--5h6p5--5h6p5--------------------------------|
E|-00000000-33333333----------------65-----65------------------------------|
   ******** ******** ********       **     **

e|----------------------------------|
B|----------------------------------|
G|-------------------------4/5------|
D|-----------------4/5-----4/5------|
A|-7------6--------4/5-----2/3-0-2--|
E|--000000--000000-2/3-0-2----------|

e|---------------------------------------|
B|---------------------------------------|
G|---------------------------------------|
D|---------------------------------------|
A|-7-------6-----------------------------|
E|---000000--000000-5h8p5-0000-11h14p11--|

e|----------------------------------|
B|----------------------------------|
G|-------------------------4/5------|
D|-----------------4/5-----4/5------|
A|-7------6--------4/5-----2/3-0-2--|
E|--000000--000000-2/3-0-2----------|

e|-------------------------------------------|
B|-------------------------------------------|
G|-------------------------------------------|
D|-------------------------------------------|
A|-7-------6---------------------------------|
E|---000000--000000-2h3p2h3p2h3p2h3p2h2p3h2--|

e|----------------------------------|
B|----------------------------------|
G|-------------------------4/5------|
D|-----------------4/5-----4/5------|
A|-7------6--------4/5-----2/3-0-2--|
E|--000000--000000-2/3-0-2----------|

e|-----------------------------|
B|-----------------------------|
G|-------------------------8-4-|
D|-----------------4/5-----8-4-|
A|-7------6--------4/5-----6-2-|
E|--000000--000000-2/3-0-2-----|

e|----------------------------------|
B|----------------------------------|
G|-------------------------4/5------|
D|-----------------4/5-----4/5------|
A|-7------6--------4/5-----2/3-0-2--|
E|--000000--000000-2/3-0-2----------|

e|---------------------------------------|
B|---------------------------------------|
G|---------------------------------------|
D|---------------------------------------|
A|-7-------6-----------------------------|
E|---000000--000000-5h8p5-0000-11h14p11--|

e|----------------------------------|
B|----------------------------------|
G|-------------------------4/5------|
D|-----------------4/5-----4/5------|
A|-7------6--------4/5-----2/3-0-2--|
E|--000000--000000-2/3-0-2----------|

e|-----------------------------|
B|-----------------------------|
G|-------------------------8-4-|
D|-----------------4/5-----8-4-|
A|-7------6--------4/5-----6-2-|
E|--000000--000000-2/3-0-2-----|

e|----------------------------------|
B|----------------------------------|
G|-------------------------4/5------|
D|-----------------4/5-----4/5------|
A|-7------6--------4/5-----2/3-0-2--|
E|--000000--000000-2/3-0-2----------|


e|-------------------------------------------------------------------------|
B|-------------------------------------------------------------------------|
G|-------------------------------------------------------------------------|
D|-------------------10-9-8----9-8-----------------------------------------|
A|-7-------6----------------10-----10-9------------------------------------|
E|---000000--000000--------------------------------------------------------|

e|----------------------------------------------------------------------------------------|
B|----------------------------------------------------------------------------------------|
G|----------------------------------------------------------------------------------------|
D|----------------------------4-----------------------------5-----------------------------|
A|-7--2---3---2--------------------2---3---2---------------------2---3---2----------------|
E|--00--0---0---0000-2h3p2-22---22---2---2---2222-3h5p3--33---33---3---3---3333-5h7p5-55--|

e|--------------------------------------|
B|--------------------------------------|
G|--------------------------------------|
D|--------------------------------------|
A|-6666666666666666-77777777-2222-00----|
E|--------------------------------------|

e|----------------------------------------------------------------------------------------|
B|----------------------------------------------------------------------------------------|
G|----------------------------------------------------------------------------------------|
D|----------------------------4-----------------------------5-----------------------------|
A|-7--2---3---2--------------------2---3---2---------------------2---3---2----------------|
E|--00--0---0---0000-2h3p2-22---22---2---2---2222-3h5p3--33---33---3---3---3333-5h7p5-55--|

e|------------------------------------|
B|------------------------------------|
G|------------------------------------|
D|------------------------------------|
A|------------------------------------|
E|-7777777777777777-88888888-3333-22--|

Solo (i havent worked it out but if somone coud sent me the tabs for it, i think i 
could play it :)

rhythm backing solo

e|-------------|
B|-------------|
G|-------------|
D|-2-----------|
A|-2--0-0-0-0--|
E|-0--0-0-0-0--|

e|----------------------------------------------------------------|
B|----------------------------------------------------------------|
G|----------------------------------------------------------------|
D|-2-------------2------------------------------------------------|
A|-2-------------2------------------------------------------------|
E|-0-000-000-000-0-000-000-000-3333333333333333-2222222222222222--|

e|----------------------------------------------------------------|
B|----------------------------------------------------------------|
G|----------------------------------------------------------------|
D|-2-------------2------------------------------------------------|
A|-2-------------2------------------------------------------------|
E|-0-000-000-000-0-000-000-000-3333333333333333-7777777777777777--|

e|----------------------------------------------------------------|
B|----------------------------------------------------------------|
G|----------------------------------------------------------------|
D|-2-------------2------------------------------------------------|
A|-2-------------2------------------------------------------------|
E|-0-000-000-000-0-000-000-000-3333333333333333-2222222222222222--|

e|----------------------------------------------------------------|
B|----------------------------------------------------------------|
G|----------------------------------------------------------------|
D|-2-------------2------------------------------------------------|
A|-2-------------2------------------------------------------------|
E|-0-000-000-000-0-000-000-000-3333333333333333-7777777777777777--|

e|--------------------------------------------------------|
B|--------------------------------------------------------|
G|--------------------------------------------------------|
D|-2--------2----4-5--2--5--7----4-5----4-5--2--5--10--7--|
A|-2--------2--5------2--5--7--5------5------2--5--10--7--|
E|-0---0-3--0---------0--3--5----------------0--3--8---5--|
       *       *               *      *
e|------------------------------|
B|------------------------------|
G|------------------------------|
D|-2----------------------------|
A|-2----------------------------|
E|-0-000-000-000-0-000-0-000-00-|
     *** *** *** * *** * *** **

e|-------------------------------------------------------------------------|
B|-------------------------------------------------------------------------|
G|-------------------------------------------------------------------------|
D|-2-----------------------------------------------------------------------|
A|-2-------------------------------------------------3---2-----------------|
E|-0-000-000-000-0-000-0-000-000-3h5p3-000-2h3p2-000--323-323--------------|
     *** *** *** * *** * *** ***       ***       ***  *** ***
e|-------------------------------------------------------------------------|
B|-------------------------------------------------------------------------|
G|-------------------------------------------------------------------------|
D|-2-----------------------------------------------------------------------|
A|-2-----------------------------7---6----232-2----------------------------|
E|-0-000-000-000-0-000-0-000-000--535-535----5-532-------------------------|
     *** *** *** * *** * *** ***  *** ***
e|-------------------------------------------------------------------------|
B|-------------------------------------------------------------------------|
G|-------------------------------------------------------------------------|
D|-------------------------------------------------------------------------|
A|-------------------------------------------------3---2-------------------|
E|-000-000-000-0-000-0-000-000-3h5p3-000-2h3p2-000--323-323----------------|
   *** *** *** * *** * *** ***       ***       ***  *** ***
e|-------------------------------------------------------------------------|
B|-------------------------------------------------------------------------|
G|-------------------------------------------------------------------------|
D|-2-----------------------------------------------------------------------|
A|-2-----------------------------7---6----232-2----------------------------|
E|-0-000-000-000-0-000-0-000-000--535-535----5-532-------------------------|
     *** *** *** * *** * *** ***  *** ***

e|---------------------------------------------------|
B|---------------------------------------------------|
G|---------------------------------------------------|
D|---------------------------------------------------|
A|-2-2------------------------7----6-----232-2-------|
E|-0-0--000-000-000-000-000----535--535----5-532-----|
   * *  *** *** *** *** ***    ***  ***
e|-------------------------------------------|
B|-------------------------------------------|
G|-------------------------------------------|
D|-----------------------------------4----5--|
A|-2-2-----------------------7---6-----------|
E|-0-0--000-000-000-000-000---535-535--535---|

e|------------------------------------------------|
B|------------------------------------------------|
G|------------------------------------------------|
D|------------------------------------------------|
A|-2-2-----------------------7----6-----232-2-----|
E|-0-0--000-000-000-000-000----535--535----5-532--|
   * *  *** *** *** *** ***    ***  ***
     ^
trem dive

e|-------------------------------------------------------------------------|
B|-------------------------------------------------------------------------|
G|--------------------------11-8------10-7-----------------9---------------|
D|-------------------------------10-7------9-6-----8----8------------------|
A|-2-2------------------------------------------10---10--------------------|
E|-0-0-000-000-000-000-000-------------------------------------------------|

e|----------------------------------------|
B|----------------------------------------|
G|----------------------------------------|
D|----------------------------------------|
A|-2-2--2-2----------7----6-----232-2-----|
E|-0-0--0-0--000-000---535--535----5-532--|
   * *  * *  *** *** *** *** ***    ***

e|---------------------------------------------------------|
B|---------------------------------------------------------|
G|---------------------------------------------------------|
D|--------------------------------------4----5-------------|
A|-2-2--------------------------7---6----------------------|
E|-0-0--000-000-000-000-000-000--535-535--535--------------|

e|-----------------------------------------------------|
B|-----------------------------------------------------|
G|-----------------------------------------------------|
D|-----------------------------------------------------|
A|-2-2--------------------------7----6-----232-2-------|
E|-0-0--000-000-000-000-000-000--535--535----5-532-----|
   * *  *** *** *** *** ***    ***  ***

e|-------------------------------------------------------------------------|
B|-------------------------------------------------------------------------|
G|------------------------------11-8------10-7-----------------9-----------|
D|-----------------------------------10-7------9-6-----8----8--------------|
A|-2-2----------------------------------------------10---10----------------|
E|-0-0-000-000-000-000-000-000---------------------------------------------|

e|-----|
B|-----|
G|-----|
D|-----|
A|-2-2-|
E|-0-0-|

lol im so sad, i was uptill 2:49 on a monday night doing this tab xD

************************************

| /   slide up
| \   slide down
| h   hammer-on
| p   pull-off
| ~   vibrato
| +   harmonic
| *  Mute note
| b   Bend
| pb  Pre-bend
| br  Bend release
| pbr Pre-bend release
| brb Bend release bend
| t   tap note

************************************
5 comments total. Showing first comments.
0 reply
alyxmelia wrote on May 30 2010, 08:10 am

nice tab dude, 4* because you haven't got the solo or the clean bit in the birdge after the solo

but nice work man :)

0 reply
BrutalDethMetal wrote on March 2 2011, 08:57 am

oww, , , that is all I can say after playing those sweeps :L
great tab dude, Sylosis tabs are very rare
i'm giving you five stars
could you perhaps tab some of their new stuff like Empyreal?

0 reply
BrutalDethMetal wrote on March 4 2011, 11:53 am

by the way, if you watch Josh's video on how to play the song you've tabbed the sweeps slightly wrong, you've tabbed it in E major, it's meant to be an E minor arpeggio

I want to post or [tab]
guest
You may want to rate the tab now too:
select rating
Please do not post tabs as comments. Select "correction" instead!