Oops, an error
Loading. Please wait.

Accolade Bass Tab

478 views 1 this week
no commentswrite comment
1 2 3 4 5
please rate
Autoscroll
+/-
esc
set tempo
stop
Contributor
Tuning
D G C F A D
WARNING: You are trying to view
                                    content from Ultimate-Guitar.com
                                    in an unauthorized application,
                                    which is prohibited.

                                    Please use an official Ultimate
                                    Guitar Tabs application for iPhone,
                                    iPad or Android to access legitimate
                                    chords, guitar, bass, and drum tabs
                                    from Ultimate-Guitar.com database.

                                    Type "ultimate guitar tabs" in Apple
                                    App Store's or Android Market's
                                    search to find the application.
#----------------------------------PLEASE NOTE---------------------------------#
#This file is the author's own work and represents their interpretation of the #
#song. You may only use this file for private study, scholarship, or research. #
#------------------------------------------------------------------------------#

ACCOLADE (Bassline)
As recorded by Symphony X
(From the 1997 Album THE DIVINE WINGS FF TRAGEDY)

Transcribed by Slap_87
	

Words by Russel Allen Music by Michael Romeo, Michael Pinnella, and Thomas Miller

Gtr I (D G C F) - 'Bass'
Gtr II (E A D G B E) - 'Violin (Key Patch)'
Gtr III (D A D G B E) - 'New Age (Key Patch)'
Gtr IV (E A D G B E) - 'Piano'

 Intro: First Phase
  Q=122         H.Q.=60
 9/8
  Gtr I
  Wx3           W
|-------------|-------|
|-------------|-------|
|-------------|-------|
|-------------|-------|


  Q=122
 4/4        9/8
  Gtr II
  W          Q  E Q.   Q.     S S E E E  E E E  E E   E H       E Q.
|----------|----------------|-----------------------|-------------------|
|----------|----------------|-----------------------|-------------------|
|----------|----------------|-4-2-------------------|-------------------|
|----------|-2----2---------|-----5-4-2-------------|-------------------|
|----------|----5-----------|------------5-4-5----2-|---2---------------|
|----------|----------------|-------------------5---|-------------------|
|
| Gtr I
| W          Q  E Q.   Q.     Q     E Q.     Q.       Q   E Q.    Q.
|----------|----------------|-----------------------|-------------------|
|----------|----------------|-----------------------|-------------------|
|----------|----------------|-----------------------|-------------------|
|----------|-2--------------|-2---------------------|-2-----------------|


  W             +E    Q   E Q  S S E E E
|-------------------|--------------------|
|-------------------|--------------------|
|-------------------|----------4-2-------|
|-------------------|-2-----2------5-4-2-|
|-------------------|-----5--------------|
|-0-------------(0)-|--------------------|
|
| Q  E Q.   Q.        H.           E E E
|-------------------|--------------------|
|-------------------|--------------------|
|-------------------|----------------2-4-|
|-2-----------------|-2------------------|


  E  E E E Q  Q   S S   E  E E E Q  E Q
|---------------------|-------------------|
|---------------------|-------------------|
|---------------------|-------------------|
|---------------------|--------4-2----2---|
|-5--4-5---2--2-------|------5------5-----|
|--------5--------5-3-|-2--5--------------|
|
| H.          E E E     H.          E E E
|---------------------|-------------------|
|---------------------|-------------------|
|---------------2-4---|---------------2-4-|
|-2-------------------|-2-----------------|


  S  S E E E E E E E E   E  Q  S S E E E E E
|----------------------|---------------------|
|----------------------|---------------------|
|-4--2-----------------|---------------------|
|------5-4-2-----------|-----------------4-2-|
|------------5-4-5---2-|----2----------5-----|
|------------------5---|-------5-3-2-5-------|
|
| H.             E E E   H.            E E E
|----------------------|---------------------|
|----------------------|---------------------|
|------------------2-4-|-----------------2-4-|
|-2--------------------|-5-------------------|


  +E  E Q  S S E E E E   E E E Q   Q   S S E
|----------------------|------------------------|
|----------------------|------------------------|
|----------4-2---------|------------------------|
|-(2)---2------5-4-2---|------------------------|
|-----5--------------5-|-4-5---2---2------------|
|----------------------|-----5---------5-3-2----|
|
|  H.            E E E   E E E E E e E E   E
|----------------------|------------------------|
|----------------------|-------------------2----|
|------------------2-4-|-----------0-2-4--------|
|--5-------------------|-2---0-2----------------|


  E E E Q   E Q   S S   E E E E E E E Q     Q   S S E E E E Q
|---------------------|-------------------|---------------------|
|---------------------|-------------------|---------------------|
|-----------------4-2-|-------------------|---------------------|
|-----4-2-----2-------|-5-4-2-------------|---------------4-2---|
|---5-------5---------|-------5-4-5---2---|-2-----------5-------|
|-5-------------------|-------------5-----|-----5-3-2-5---------|
|
| E E E E E e E E E     E E E E E e E E E   E E E   E E e E E E
|---------------------|-------------------|---------------------|
|-----------------2---|-----------------2-|-------------------2-|
|-----------0-2-4-----|-----------0-2-4---|-------------0-2-4---|
|-2---0-2-------------|-2---0-2-----------|-2---0---2-----------|


  E Q   S S E E E E E   E E E E Q   S S E E   E E E +E  E Q   S S E
|---------------------|---------------------|------------------------|
|---------------------|---------------------|------------------------|
|-------4-2-----------|---------------------|-----------------4-2----|
|---2-------5-4-2-----|---------------------|---4-2-(2)---2-------5--|
|-5---------------5-4-|-5---2---2-----------|-5---------5------------|
|---------------------|---5---------5-3-2-5-|------------------------|
|
| Q   E E   E e E E E   Q   E E E e E   E E   E E E  E  E E e E   E
|-------------------1-|-------------------1-|------------------------|
|---------------1-2---|-------------1---2---|---------------------2--|
|-0-----0-----0-------|-0-----0-------------|---------------0-4------|
|-----2---------------|-----2-----0---------|-2---2-----2------------|


  E E E E E E Q     E   +E  S S E E E E Q   E   Q   S S E E E E   E E
|---------------------|-----------------------|-----------------------|
|---------------------|-----------------------|-----------------------|
|---------------------|-----------------------|-----4-2---------------|
|-4-2-----------------|---------------4-2-----|-2-------5-4-2---------|
|-----5-4-5---2-----2-|-(2)---------5-------5-|---------------5---4-5-|
|-----------5---------|-----5-3-2-5-----------|-----------------------|
|
| E E E E E e S S E E    E  E   E E E E e E E   E E E   E E e S S E E
|---------------------|-----------------------|-----------------------|
|-----------2-2-------|---------------------2-|-------------2-2-------|
|---------------4-2-0-|-----------------0-4---|-----------------4-2-4-|
|-2---2---2-----------|--2------2---2---------|-2---2-----2-----------|


                                              Intro: Sec
                                               Q=156
                                              3/4
  E Q   Q   S S E E E   E Q   E Q   S S E E    H.
|---------------------|---------------------||---------|
|---------------------|---------------------||---------|
|---------------------|-------------4-2-----||---------|
|---------------------|-4-2-----2-------5-2-||-4-------|
|---2---2-----------5-|-------5-------------||---------|
|-5---------5-3-2-5---|---------------------||---------|
|
| E E E E E E   E E E   E E E E E E S S E E    H.
|-------------------1-|---------------------||---------|
|-----------------2---|-----------4-2-1-----||---------|
|---------------4-----|-0---0---0-------4-2-||---------|
|-5---5---5-----------|---------------------||-4-------|


 ond Phase
   H.        Q.   Q.     H    E E   Q.   Q.     Q.   Q.
|----------|-----------|----------|-----------|------------|
|----------|-----------|----------|-----------|------2-----|
|--2-------|------2----|----------|-----------|-2----------|
|----------|-6---------|-4----2---|------2----|------------|
|----------|-----------|--------5-|-4---------|------------|
|----------|-----------|----------|-----------|------------|
|
| +H.        W           W          W           W
|----------|-----------|----------|-----------|------------|
|----------|-----------|----------|-----------|------------|
|----------|-----------|----------|-----------|------------|
|-(4)------|-----------|----------|-----------|------------|


  Gtr II
  E E H      +H.        H.        H.        Q.   Q.
|----------|----------|---------|---------|-----------|
|-2-3------|----------|---------|---------|-----------|
|-----4----|-(4)------|---------|-2-------|------2----|
|----------|----------|-4-------|---------|-6---------|
|----------|----------|---------|---------|-----------|
|----------|----------|---------|---------|-----------|


  H    E E   Q.   Q.     Q.   Q.     E E H
|----------|-----------|-----------|----------|
|----------|-----------|------2----|-2-3------|
|----------|-----------|-2---------|-----4----|
|-4----2---|------2----|-----------|----------|
|--------5-|-4---------|-----------|----------|
|----------|-----------|-----------|----------|


  Q=140    Q=158
              7/4
  E E H        W     4x
|----------||--------||
|----------||o------o||
|-2-4------||--------||
|-----5----||--------||
|----------||o------o||
|----------||--------||
|
| Gtr I
| W            W     4x
|----------||--------||
|----------||o------o||
|----------||o------o||
|----------||--------||


  Gtr I
  H.      E E E E Q  Q    H.      E E Q   E  E  E  E   H.      E E E E Q  Q
|-----------------------|----------------13----------|-----------------------|
|-----------------------|-------------------14-------|-----------------------|
|-----------------------|----------------------14----|-----------------------|
|-0---------0---0-------|-0---------0-------------12-|-0---------0---0-------|


  H.      E E E E Q  Q     Q  E E E S S Q  E E Q  E E
|-----------------------||-----------------------------|
|-----------------------||-----------------------------|
|-----------------------||-----------------------------|
|-0---------0---0-------||-2--2-----x-x-2--2---2--2----|


  E S S Q  E E S S S S S S S S S S S S S S S S   Q  E E E S S Q  E E Q  E E
|----------------------------------------------|-----------------------------|
|--------------------------1-3-4-3-1-----------|-----------------------------|
|--------------3-4-3-1-3-4-----------4-3-1-3-4-|-----------------------------|
|---x-x-2--2-----------------------------------|-2--2-----x-x-2--2---2--2----|


  E S S Q  E E S S S S S S S S S S S S S S S S    E E E E Q  E E E E E Q  E
|----------------------------------------------||----------------------------|
|--------------------------1-3-4-3-1-----------||----------------------------|
|--------------3-4-3-1-3-4-----------4-3-1-3-4-||----------------------------|
|---x-x-2--2-----------------------------------||-4---4---4----4---4---4-----|


                                                          4/4
  E E E E Q  E E E E E Q  E   E E E E Q  E E E E Q  E E    E E E E E E E E
|---------------------------|---------------------------||------------------|
|---------------------------|---------------------------||------------------|
|---------------------------|---------------------------||------------------|
|-4---4---4----4---4---4----|-4-----4----4-----4----4-4-||-0-0---0-0-0---0--|


  E E E E E E E E   E E E E E E E E   E E E E E E E E   E E E E E E E E
|-----------------|-----------------|-----------------|-----------------|
|-----------------|-----------------|-----------------|-----------------|
|-----------------|-----------------|-----------------|-----------------|
|-0-0---0-0-0---0-|-0-0---0-0-0---0-|-0-0---0-0-0---0-|-0-0---0-0-0---0-|


                                           First Verse
                   6/4
  E E E E E E E E   Q.   Q.   Q.   Q.       E E E E E E E E E E E E
|-----------------|---------------------||---------------------------|
|-----------------|---------------------||o--------------------------|
|-----------------|-0----2----3----5----||o-6-6-6-6-6-6-6-6-6-6-6-6--|
|-0-0---0-0-0---0-|---------------------||---------------------------|


  E E E E E E E E E E E E   E E E E E E E E E E E E   E E E E E E Q.   Q.
|-------------------------|-------------------------|----------------------|
|-------------------------|-------------------------|----------------------|
|-6-6-6-6-6-6-6-6-6-6-6-6-|-6-6-6-6-6-6-6-6-6-6-6-6-|-6-6-6-6-6-6------4---|
|-------------------------|-------------------------|-------------7--------|


  E E E E E E E E E E E E   E E E E E E E E E E E E   E E E E E E E E E E E E
|-------------------------|-------------------------|--------------------------|
|-------------------------|-------------------------|--------------------------|
|-6-6-6-6-6-6-6-6-6-6-6-6-|-6-6-6-6-6-6-6-6-6-6-6-6-|-6-6-6-6-6-6-6-6-6-6-6-6--|
|-------------------------|-------------------------|--------------------------|


  1.                     2.
                         9/8
  Q.   Q.   Q.   Q.       Q.   Q.   Q.
|----------------------||----------------||
|---------------------o||----------------||
|----------------4----o||----------------||
|-4----6----7----------||-4----6----7----||


 Bridge
 5/4
  H.      E E +E  E   H.      E E +E  E
|-------------------|---------------------|
|-------------------|---------------------|
|-4---------0-(0)---|-2-------------------|
|-------------------|-----------4-(4)-----|


 5/4
                                        G
  W                   W
|-------------------|-------------------|
|-------------------|-------------------|
|-------------------|-------------------|
|-------------------|-------------------|
|-------------------|-------------------|
|-------------------|-------------------|
|
| Gtr I
| H.      E E +E  E   H.      E E +E  E
|-------------------|-------------------|
|-------------------|-------------------|
|-4---------0-(0)---|-2-----------------|
|-------------------|-----------4-(4)---|


 5/8                                                2/4
 tr IV
  E  S S S S E E   E  S S S S E E   E  S S S S E E   W
|-2--2-0-----0---|----------------|----------------|------|
|-3------3-0---2-|-3--3-2-0---2---|-0--0-----------|------|
|------------6---|-4--------2-----|-0----0-----2---|------|
|------------7---|------------7-4-|--------4-2-4-4-|------|
|----------------|------------9---|------------5---|------|
|----------------|----------------|----------------|------|
| Q.         Q     Q.         Q     Q.         Q
|
| E  H             W                W                W
|----------------|----------------|----------------|------|
|----------------|----------------|----------------|------|
|-4--------------|----------------|----------------|------|
|----------------|----------------|----------------|------|


 7/4
  Gtr I
  S S S S E S S S S E S S S S E S S S S E S S E
|-----------------------------------------------|
|-3-3-3-3---3---3-3---3-3-3-3---3---3-3---3-3---|
|-----------------------------------------------|
|-----------------------------------------------|


  S S S S E S S S S E S S S S E S S S S E S S E
|--------------------------------------------------|
|-3-3-3-3---3---3-3---3-3-3-3---3---3-3---3-3------|
|--------------------------------------------------|
|--------------------------------------------------|


  S S S S E S S S S E S S S S E S S S S E S S E
|-----------------------------------------------|
|-3-3-3-3---3---3-3---3-3-3-3---3---3-3---3-3---|
|-----------------------------------------------|
|-----------------------------------------------|


  S S S S E S S S S E S S S S E S S S S E S S E
|-------------------------------------------------|
|-3-3-3-3---3---3-3---3-3-3-3---3---3-3---3-3-----|
|-------------------------------------------------|
|-------------------------------------------------|


  S S S S E S S S S E S S S S E S S S S E S S E
|-----------------------------------------------|
|-----------------------------------------------|
|-4-4-4-4---4---4-4---4-4-4-4---4---4-4---4-4---|
|-----------------------------------------------|


  S S S S E S S S S E S S S S E S S S S E S S E
|-------------------------------------------------|
|-------------------------------------------------|
|-4-4-4-4---4---4-4---4-4-4-4---4---4-4---4-4-----|
|-------------------------------------------------|


  S S S S E S S S S E S S S S E S S S S E S S S S
|-------------------------------------------------|
|-------------------------------------------------|
|-------------------------------------------------|
|-1-1-1-1---1---1-1---1-1-1-1---1---1-1---1-1-1-1-|


  E S S S S E S S S S E S S S S E S S E S S E
|-----------------------------------------------|
|-----------------------------------------------|
|-----------------------------------------------|
|---1---1-1---1-1-1-1---1---1-1---1-1---1-1-----|


  S S S S E S S S S E S S S S E S S S S E S S E
|-----------------------------------------------|
|-----------------------------------------------|
|-4-4-4-4---4---4-4---4-4-4-4---4---4-4---4-4---|
|-----------------------------------------------|


  S S S S E S S S S E S S S S E S S S S E S S E
|-------------------------------------------------|
|-------------------------------------------------|
|-4-4-4-4---4---4-4---4-4-4-4---4---4-4---4-4-----|
|-------------------------------------------------|


  S S S S E S S S S E S S S S E S S S S E S S S S
|-------------------------------------------------|
|-------------------------------------------------|
|-------------------------------------------------|
|-1-1-1-1---1---1-1---1-1-1-1---1---1-1---1-1-1-1-|


  E S S S S E S S S S E S S S S E S S E S S E
|-----------------------------------------------|
|-----------------------------------------------|
|-----------------------------------------------|
|---1---1-1---1-1-1-1---1---1-1---1-1---1-1-----|


                            First Chorus
                             F#m                    Em      Dm
 4/4                        6/4
  |-3-| |-3-| |-3-| |-3-|
  E E E E E E E E E E E E    H    +E  E Q  +H       H.      H.
|-------------3-1---------||----------------------|---------------|
|---------1-3-----5-3-1---||------------6--(6)----|---------------|
|-----1-3---------------3-||----------6-----------|---------------|
|-1-4---------------------||-4----(4)-------------|-2-------0-----|


  Am
  Gtr I
  H    +E  E Q  +H       E E E E E E E E E Q  E
|------------4--(4)----|------------------------|
|----------4-----------|------------------------|
|-2----(2)-------------|-0-0---0---x-0-0---0--0-|
|----------------------|------------------------|


  F#m                    Em      Dm
  H    +E  E Q  +H       H.      H.
|----------------------|---------------|
|------------6--(6)----|---------------|
|----------6-----------|---------------|
|-4----(4)-------------|-2-------0-----|


                                                  First Interlude
  A5                     G5
                                                  7/4
  H    +E  E Q  +H       E E E E E E E E E Q.      W        +H.
|------------4--(4)----|------------------------||-----------------|
|----------4-----------|------------------------||-----------------|
|-2----(2)-------------|-0-0---0---x-0-0---0----||-----------------|
|----------------------|------------------------||-9--------(9)----|


  E  E  E  E E E E E  E  E E  E E E     E  E  E  E E E E E  E  E E  E E E  4x
|------------8-------------9-11-8---||-------------8-------------9-11-8----||
|------11------9--------11--------9-||o------11------9--------11--------9-o||
|---11----11-----9---11-------------||o---11----11-----9---11-------------o||
|-9----------------9----------------||--9----------------9-----------------||


                                   First Synth Solo
                                   6/4
                                Gtr III
    W                            4x Q     E Q     E S S  S S S  S Q     E
||-------------------------------||----------------------------------------|
||o-----------------------------o||----------------------------------------|
||-------------------------------||-------------------------------7b9---7--|
||-------------------------------||------------------------7-9-11----------|
||o-----------------------------o||-5b7---5-7b9---7-7-9-10-----------------|
||-------------------------------||----------------------------------------|
|
|   Gtr I
|   E E E E E E E E E E E E E E  4x E   E E E   E E E    E   E    E   E E
||----------5-----------6-8-5----||----------------------------------------|
||o-----8-----6-------8-------6-o||----------------------------------------|
||o---8---8-----6---8-----------o||----------------------------------------|
||--6-------------6--------------||-2---2---0-----2------2--------0---2----|


                                                               \1/
                                |--3--|   |--3--| |--3--|
  Q     E E E E S S S S S S S S E E   E   E E   E E E   E Q   +Q     S S S S S S S S
|-------------------------------6-------|---------------4-5---(5)----4-----4-5-7-5-4-|
|-5b7---5-------5-------------7---7-----|-----------7------------------7-5-----------|
|---------7-6-7---7-6-----6-7---------7-|---------6----------------------------------|
|---------------------9-7---------------|---8---9------------------------------------|
|---------------------------------------|-9------------------------------------------|
|---------------------------------------|--------------------------------------------|
|
| E   E E E E E E   E   E   E   E   E     E   E   E   E   E E  E   E E   E   E   E
|---------------------------------------|--------------------------------------------|
|---------------------------------------|--------------------------------------------|
|---------------------------------------|--------------------------------------------|
|-2---2---0---2-----2-------0---2-------|-2---2-------0-----2------2-----0---2-------|


  S S S S S S S S S S S S S S S S S S S S S S S S
|-------------------------------------------------|
|-7-5-----------5---------------------------------|
|-----7-6-4-6-7---7-6-4---------------------------|
|-----------------------8-6---7-8-7-6-------------|
|---------------------------9---------9-7-5-4-5-7-|
|-------------------------------------------------|
|
| E   E   E   E   E   E   E   E   E   E   E   E
|-------------------------------------------------|
|-------------------------------------------------|
|-------------------------------------------------|
|-2---2-------0-------2-------2-------0---2-------|


 First Guitar Solo
  S S S E.   +Q    Q.     H           W                        3x
|---------------------------------||---------------------------||
|---------------------------------||o-------------------------o||
|---------------------------------||---------------------------||
|---------------------------------||---------------------------||
|-5-4-----------------------------||o-------------------------o||
|-----8-6----(6)------------------||---------------------------||
|
| E   E    E  E  E E  E E E E E E     E E E E E E E E E E E E  3x
|---------------------------------||---------------------------||
|---------------------------------||o-------------------------o||
|---------------------------------||o-------------------------o||
|-6---6-------4----6----6---4-6---||--6-6---4---6---6---4-6----||


 Synth Solo II
  E E E E +E  S S S S S S S S S  S S  S S  S
|--------------------------------------------|
|--------------------------------------------|
|--------------------------------------------|
|-----6-8-(8)-9-6-8---6----------------------|
|-7-9---------------9---7-9-5-7----5---------|
|-------------------------------11---11-9-11-|
|
| E E E E  E  E   E   E   E   E    E    E
|--------------------------------------------|
|--------------------------------------------|
|--------------------------------------------|
|-2-2---0-----2-------2-------0----2---------|


  S S S S S S S S S S S S Q     E E   S S S S
|------------------------------------------------|
|------------------------------------------------|
|---------------------6-7-6b7---9-7b9-6-7---6----|
|-------6-------6-8-9---------------------9------|
|-5-7-9---5-7-9----------------------------------|
|------------------------------------------------|
|
| E   E   E   E   E   E   E   E E E   E   E
|------------------------------------------------|
|------------------------------------------------|
|------------------------------------------------|
|-2---2-------0-------2-------2---0---2----------|


                                               \1/
  S S S S S S S S S S S S S S S S Q     E E   +E   E E Q   E Q   Q     Q
|-------------------------------7-6b7-----6-|-(6)----------6-7---6b7---6----|
|---------------------------5-7---------8---|------7-9----------------------|
|-------------------------------------------|----------9--------------------|
|-7-9-6-7---6---------6-7-9-----------------|-------------------------------|
|---------9---7-9-7-9-----------------------|-------------------------------|
|-------------------------------------------|-------------------------------|
|
| E   E   E   E   E   E   E   E   E   E E E    E   E E E E E E E E   E E E
|-------------------------------------------|-------------------------------|
|-------------------------------------------|-------------------------------|
|-------------------------------------------|-------------------------------|
|-2---2-------0-------2-------2-------0-2---|--2---2---0---2---2-----0-2----|


 Second Guitar Solo
  +Q    W               Q       W                        3x
|-(6)-----------------------||---------------------------||
|---------------------------||o-------------------------o||
|---------------------------||---------------------------||
|---------------------------||---------------------------||
|---------------------------||o-------------------------o||
|---------------------------||---------------------------||
|
|  E  E E E E E E E E E E E     E E E E E E E E E E E E  3x
|---------------------------||---------------------------||
|---------------------------||o-------------------------o||
|---------------------------||o-------------------------o||
|--6--6---4---6---6---4-6---||--6-6---4---6---6---4-6----||


 7/4
  Gtr II
  Q       E Q       S S E   E   E E   E   E E   E
|-------------------------------------------------|
|-------------------------------------------------|
|-------------------4-2---------------------------|
|-2---------2-----------5---4---2-----------------|
|---------5-----------------------5---4---5-----2-|
|-------------------------------------------5-----|
|
| S S S S E S S S S E   S S S S E S S S S E S S E
|-------------------------------------------------|
|-------------------------------------------------|
|-------------------------------------------------|
|-6-6-6-6---6---6-6-----6-6-6-6---6---6-6---6-6---|


  +E    Q     S S E   E E   E   Q     E   Q     S S
|------------------------------------------------------|
|------------------------------------------------------|
|-----------------------------------------------4-2----|
|---------------------------4---2---------2------------|
|-(2)---2---------------5-------------5----------------|
|-------------5-3-2---5--------------------------------|
|
|  S  S S S E S S S S E S S S S E S S S S E S S E
|------------------------------------------------------|
|------------------------------------------------------|
|------------------------------------------------------|
|--6--6-6-6---6---6-6---6-6-6-6---6---6-6---6-6--------|


 4/4
  E   E   E E   E   E E   E     +E  Q       S S E   E E   E
|-----------------------------|--------------------------------|
|-----------------------------|--------------------------------|
|-----------------------------|--------------------------------|
|-5---4---2-------------------|---------------------------4----|
|-----------5---4---5-----2---|-(2)-2-----------------5--------|
|---------------------5-------|-------------5-3-2---5----------|
|
| S S S S E S S S S E S S S S    E  S S S S E   S S E S S S S
|-----------------------------|--------------------------------|
|-----------------------------|--------------------------------|
|-----------------------------|--------------------------------|
|-6-6-6-6---6---6-6---6-6-6-6-|-----6---6-6-----6-6---6-6-6-6--|


 Second Verse
 6/4
  Gtr I
  E E E E E E E E E E E E   E E E E E E E E E E E E
|-------------------------|-------------------------|
|-------------------------|-------------------------|
|-6-6-6-6-6-6-6-6-6-6-6-6-|-6-6-6-6-6-6-6-6-6-6-6-6-|
|-------------------------|-------------------------|


  E E E E E E E E E E E E   E E E E E E Q.   Q.     E E E E E E E E E E E E
|-------------------------|-----------------------|--------------------------|
|-------------------------|-----------------------|--------------------------|
|-6-6-6-6-6-6-6-6-6-6-6-6-|-6-6-6-6-6-6------4----|-6-6-6-6-6-6-6-6-6-6-6-6--|
|-------------------------|-------------7---------|--------------------------|


  E E E E E E E E E E E E   E E E E E E E E E E E E   Q.   Q.   Q.   Q.
|-------------------------|-------------------------|--------------------|
|-------------------------|-------------------------|--------------------|
|-6-6-6-6-6-6-6-6-6-6-6-6-|-6-6-6-6-6-6-6-6-6-6-6-6-|----------------4---|
|-------------------------|-------------------------|-4----6----7--------|


  Gtr I
  E E E E Q  E E E E Q    E E E E Q  E E E E Q    E E E E Q  E E E E Q
|-----------------------|-----------------------|------------------------|
|-----------------------|-----------------------|------------------------|
|-----------------------|-----------------------|------------------------|
|-1-1---1-1--1-1---1-1--|-1-1---1-1--1-1---1-1--|-1-1---1-1--1-1---1-1---|


                        Second Chorus
  Q.   Q.   Q.   Q.      W        +H
|---------------------||-----------------|
|---------------------||-----------------|
|----------------6----||-----------------|
|-6----8----9---------||-4--------(4)----|


  H.      H.        H    +E  E Q  +E  E +Q
|-----------------|------------4--(4)----------|
|-----------------|----------4-----------------|
|-----------------|-2----(2)----------2-(2)----|
|-2-------0-------|----------------------------|


  E E E E E E E E E Q  E   H    +E  E Q  +H
|------------------------|----------------------|
|------------------------|------------6--(6)----|
|-0-0---0---0-0-0---0--0-|----------6-----------|
|------------------------|-4----(4)-------------|


  H.      H.        H    +E  E Q  +H
|-----------------|------------4--(4)----|
|-----------------|----------4-----------|
|-----------------|-2----(2)-------------|
|-2-------0-------|----------------------|


  W        +H        H    +E  E Q  +H
|-----------------||----------------------|
|-----------------||------------8--(8)----|
|-0--------(0)----||----------8-----------|
|-----------------||-6----(6)-------------|


  H.      H.        H    +E  E Q  H
|-----------------|------------6-------|
|-----------------|----------6---------|
|-----------------|-4----(4)------4----|
|-4-------2-------|--------------------|


  E E E E E E E E E Q  E   H    +E  E Q  +H       H.      H.
|------------------------|----------------------|---------------|
|------------------------|------------8--(8)----|---------------|
|-2-2---2---2-2-2---2--2-|----------8-----------|---------------|
|------------------------|-6----(6)-------------|-4-------2-----|


                        Breakdown
                        4/4
  H    +E  E Q  +H       Q.   E +Q   Q    +W           Q.   E +Q   Q
|------------6--(6)----|----------------|------------|-----------------|
|----------6-----------|----------------|------------|-----------------|
|-4----(4)-------------|-2----2-(2)--2--|-(2)--------|-4----4-(4)--4---|
|----------------------|----------------|------------|-----------------|


  +W           Q.   E +H       Q.   E +Q   Q    W
|------------|---------------|----------------|------|
|------------|---------------|----------------|------|
|-(4)--------|-5----5-(5)----|-7----7-(7)-----|-0----|
|------------|---------------|-------------0--|------|


                                         Second Interlude
                            Q=122
  +W           +W           +W            Wx33
|------------|------------|------------||---------|
|------------|------------|------------||---------|
|-(0)--------|-(0)--------|-(0)--------||---------|
|------------|------------|------------||---------|


  Q=122
 6/4
  Wx4              E E E E H     E E  E E
|----------------|-----9-7--------------7-|
|----------------|---------9\----7-9-10---|
|----------------|-7----------------------|
|----------------|------------------------|


  Q  E E  Q  Q  e  e E E   E E H     E E  E E Q    E E  Q  Q  e  e E E E E
|------------------------|-9-7--------------7----|---------------------9-7-|
|------------7-----------|-----9\----7-9-10------|---------7---------------|
|-9--7-9-10-----9----7---|--------------------9--|-7-9-10-----9----7-------|
|-----------------10-----|-----------------------|--------------10---------|


  H     E E  E E Q  E E    Q  Q  e  e E E E E Q
|--------------7--------|-----------------9-7-----|
|-9\----7-9-10----------|-----7---------------9\--|
|----------------9--7-9-|-10-----9----7-----------|
|-----------------------|----------10-------------|


                                     Q=156
                            2/4       4/4
  +Q   E E  E E Q  E E  Q    Q  E  E   Q  E E +H       +W
|-------------7------------|---------|---------------|--------|
|-(9)--7-9-10--------------|-7-------|---------------|--------|
|---------------9--7-9-10--|----9----|-5----7-(7)----|-(7)----|
|--------------------------|------10-|---------------|--------|


 4/4
  Q  E E +H       +W           Q  E E +H       +W
|---------------|------------|---------------|--------|
|---------------|------------|---------------|--------|
|---------------|------------|---------------|--------|
|-1----3-(3)----|-(3)--------|-4----6-(6)----|-(6)----|


 7/4
  S S S S E S S S S E S S S S E S S S S E S S E
|-----------------------------------------------|
|-----------------------------------------------|
|-4-4-4-4---4---4-4---4-4-4-4---4---4-4---4-4---|
|-----------------------------------------------|


  S S S S E S S S S E S S S S E S S S S E S S E
|--------------------------------------------------|
|--------------------------------------------------|
|-4-4-4-4---4---4-4---4-4-4-4---4---4-4---4-4------|
|--------------------------------------------------|


  W        +H.        W        +H.
|-------------------|-------------------|
|-------------------|-------------------|
|-------------------|-------------------|
|-1--------(1)------|-1--------(1)------|


  S S S S E S S S S E S S S S E S S S S E S S E
|--------------------------------------------------|
|--------------------------------------------------|
|-4-4-4-4---4---4-4---4-4-4-4---4---4-4---4-4------|
|--------------------------------------------------|


  S S S S E S S S S E S S S S E S S S S E S S E
|-----------------------------------------------|
|-----------------------------------------------|
|-4-4-4-4---4---4-4---4-4-4-4---4---4-4---4-4---|
|-----------------------------------------------|


  W        +H.        W        +H.
|-------------------|-----------------|
|-------------------|-----------------|
|-------------------|-----------------|
|-1--------(1)------|-1--------(1)----|


                     4/4
                      |-3-| |-3-| |-3-| |-3-|
  W        +H.        E E E E E E E E E E E E
|-------------------|-------------3-1----------|
|-------------------|---------1-3-----5-3-1----|
|-------------------|-----1-3---------------3--|
|-1--------(1)------|-1-4----------------------|


 Third Chorus
 6/4
  W        +H       H.      H.
|-----------------|-----------------|
|-----------------|-----------------|
|-----------------|-----------------|
|-4--------(4)----|-2-------0-------|


  H    +E  E Q  H      E E E E E E E E E Q.
|------------4-------|------------------------|
|----------4---------|------------------------|
|-2----(2)------2----|-0-0---0---0-0-0---0----|
|--------------------|------------------------|


  H    +E  E Q  +H       H.      H.
|----------------------|-----------------|
|------------6--(6)----|-----------------|
|----------6-----------|-----------------|
|-4----(4)-------------|-2-------0-------|


  H    +E  E Q  +H       W        +H
|------------4--(4)----|-----------------|
|----------4-----------|-----------------|
|-2----(2)-------------|-0--------(0)----|
|----------------------|-----------------|


  H    +E  E Q  +H       H.      H.
|----------------------|-----------------|
|------------8--(8)----|-----------------|
|----------8-----------|-----------------|
|-6----(6)-------------|-4-------2-------|


  H    +E  E Q  H      E E E E E E E E E E E E
|------------6-------|--------------------------|
|----------6---------|--------------------------|
|-4----(4)------4----|-2-2---2---2-2-2---2-2----|
|--------------------|--------------------------|


  H    +E  E Q  +H       H.      H.
|----------------------|-----------------|
|------------8--(8)----|-----------------|
|----------8-----------|-----------------|
|-6----(6)-------------|-4-------2-------|


                       H.=H
  H    +E  E Q  H      Q.   Q.   H.
|------------6--4----|-----------------|
|----------6---------|-----------------|
|-4----(4)-----------|-2----2----2-----|
|--------------------|-----------------|


                      Outro
             Q=90      Q=110
                      9/8
  +W         +H        W        +E    +W         +E
|-------------------||--------------|-------------------|
|-------------------||--------------|-------------------|
|-(2)--------(2)----||-2--------(2)-|-(2)--------(2)----|
|-------------------||--------------|-------------------|


             H.=H           Q.=40
  W        E   W        E   W        E
|------------|------------|-------------*|
|------------|------------|-------------*|
|------------|------------|-------------*|
|------------|------------|-------------*|



Duration Legend
---------------
W - whole; H - half; Q - quarter; E - 8th; S - 16th; T - 32nd; X - 64th; a - acciaccatura
+ - note tied to previous; . - note dotted; .. - note double dotted
Uncapitalized letters represent notes that are staccato (1/2 duration)
Irregular groupings are notated above the duration line
Duration letters will always appear directly above the note/fret number it represents the
duration for.  Duration letters with no fret number below them represent rests.  Multi-
bar rests are notated in the form Wxn, where n is the number of bars to rest for.  Low
melody durations appear below the staff

Tablature Legend
----------------
 h   - hammer-on
 p   - pull-off
 b   - bend
 pb  - pre-bend
 r   - bend release (if no number after the r, then release immediately)
 /\  - slide into or out of (from/to "nowhere")
 s   - legato slide
 S   - shift slide
 - natural harmonic
[n]  - artificial harmonic
n(n) - tapped harmonic
 ~   - vibrato
 tr  - trill
 T   - tap
 TP  - trem. picking
 PM  - palm muting
\n/  - tremolo bar dip; n = amount to dip
 \n  - tremolo bar down
 n/  - tremolo bar up
/n\  - tremolo bar inverted dip
 =   - hold bend; also acts as connecting device for hammers/pulls
 <> - volume swell (louder/softer)
 x   - on rhythm slash represents muted slash
 o   - on rhythm slash represents single note slash

Misc Legend
-----------
 |  - bar
||  - double bar
||o - repeat start
o|| - repeat end
*|  - double bar (ending)
 :  - bar (freetime)
 $  - Segno
 &  - Coda
Tempo markers -  = BPM(8/16=s8/s16), where s8 = swing 8ths, s16 = swing 16ths

comments
We did not receive enough feedback on this tab! Please rate:
1 2 3 4 5
I want to post or [tab]
guest
You may want to rate the tab now too:
select rating
Please do not post tabs as comments. Select "correction" instead!