Oops, an error
Loading. Please wait.

Domination Game Bass Tab

19,161 views 33 this week
4 commentsread comments
1 2 3 4 5
excellent!
x 6
Autoscroll
+/-
esc
set tempo
stop
Contributor
Difficulty
intermediate
Hey! There's an official Ultimate Guitar app which is ideal
for learning songs when you're away from computer. Get the app
WARNING: You are trying to view
                                    content from Ultimate-Guitar.com
                                    in an unauthorized application,
                                    which is prohibited.

                                    Please use an official Ultimate
                                    Guitar Tabs application for iPhone,
                                    iPad or Android to access legitimate
                                    chords, guitar, bass, and drum tabs
                                    from Ultimate-Guitar.com database.

                                    Type "ultimate guitar tabs" in Apple
                                    App Store's or Android Market's
                                    search to find the application.
                   ***Symphony X - Domination***
		      -----------------------
		       Ripped by Dugihilation

				

				*Intro*



Tempo = 230
                                              |----3----|   |----3----|   
      E  E  E  E  E  E  E  E     E  E  E  E   E    E    E   E    E    E   
F||---7--------5--------------|--------------11h--12h--14----------------|
C||*-----0--0-----0--0--5--0--|--8--0--7--0----------------10h--12h--13--|
G||*--------------------------|------------------------------------------|
D||---------------------------|------------------------------------------|


                             ___________________________
			    |1.                         |
   E  E  E   E  E  E  E  E  |  E  E  E  E  E  E  E  E   |  
----------------------------|---------------------------||
--12--0--0--10--0--0--8--0--|--7--0--5--0--4--0--1--0--*||
----------------------------|--------------------------*||
----------------------------|---------------------------||

 _________________________________________
|2.					  |
|   NH   NH   NH   NH   NH   NH   NH   NH |                             
|   E    E    E    E    E    E    E    E  |    E  E  E  E  E  E  E  E   
----------------------<>5--<>5------------||---------------------------|
------------<>5--<>5------------<>5--<>5--||*--0--0--0--0--0--0--0--0--|
--<>5--<>5--------------------------------||*--------------------------|
------------------------------------------||---------------------------|


  E  E  E  E  E  E  E  E     E  E  E  E  E  E  E  E   
--------------------------|--------------------------|
--0--0--0--0--------1--1--|--0--0--0--0--0--0--8--0--|
--------------3--3--------|--------------------------|
--------------------------|--------------------------|

			     _______________________________________________
 __________________________ |2. 					    |
|1.                        ||  |---3---|  |---3---|  |---3---|  |----3---|  | 
| E  E  E  E  E  E  E  E   ||  E   E   E  E   E   E  E   E   E  E   E    E  | 
---------------------------||-----------------------------------------------|
--7--0--5--0--4--0--1--0--*||------------------------0h--4h--7--0h--7h--10--|
--------------------------*||--0h--3h--6--0h--6h--9-------------------------|
---------------------------||-----------------------------------------------|


    E  E  E  E  E  E  E  E     E  E  E  E  E  E  E  E   
|---------------------------|--------------------------|
|*--0--0--0--0--0--0--0--0--|--0--0--0--0--------1--1--|
|*--------------------------|--------------3--3--------|
|---------------------------|--------------------------|

			   ____________________________
			  |1.			       |
  E  E  E  E  E  E  E  E  |  E  E  E  E  E  E  E  E    | 
--------------------------|---------------------------||
--0--0--0--0--0--0--8--0--|--7--0--5--0--4--0--1--0--*||
--------------------------|--------------------------*||
--------------------------|---------------------------||

 ______________________________________________
|2.					       |
| |---3---|  |---3---|  |---3---|  |----3---|  |                              
| E   E   E  E   E   E  E   E   E  E   E    E  |    E  E  E  E  E  E  E  E   
-----------------------------------------------||---------------------------|
------------------------0h--4h--7--0h--7h--10--||*--7--------5--------------|
--0h--3h--6--0h--6h--9-------------------------||*-----0--0-----0--0--5--0--|
-----------------------------------------------||---------------------------|


               |----3----|   |----3----|                                
  E  E  E  E   E    E    E   E    E    E      E  E  E   E  E  E  E  E   
------------------------------------------|----------------------------|
--------------11h--12h--14----------------|----------------------------|
--8--0--7--0----------------10h--12h--13--|--12--0--0--10--0--0--8--0--|
------------------------------------------|----------------------------|

			     _______________________________________________
 __________________________ |2. 					    |
|1.                        ||  |---3---|  |---3---|  |---3---|  |----3---|  | 
| E  E  E  E  E  E  E  E   ||  E   E   E  E   E   E  E   E   E  E   E    E  | 
---------------------------||-----------------------------------------------|
--------------------------*||-----------------------------------------------|
--7--0--5--0--4--0--1--0--*||------------------------0h--4h--7--0h--7h--10--|
---------------------------||--0h--3h--6--0h--6h--9-------------------------|


                                            |----3----|   |----3----|   
    E  E  E  E  E  E  E  E     E  E  E  E   E    E    E   E    E    E   
|---------------------------|------------------------------------------|
|*--7--------5--------------|--------------11h--12h--14----------------|
|*-----0--0-----0--0--5--0--|--8--0--7--0----------------10h--12h--13--|
|---------------------------|------------------------------------------|


			     ____________________________
			    |1.			         |
   E  E  E  E  E  E  E  E   |  E  E  E  E  E  E  E  E    | 
----------------------------|---------------------------||
----------------------------|--------------------------*||
--12--0--0--10--0--0--8--0--|--7--0--5--0--4--0--1--0--*||
----------------------------|---------------------------||

 ______________________________________________
|2.					       |
| |---3---|  |---3---|  |---3---|  |----3---|  |                              
| E   E   E  E   E   E  E   E   E  E   E    E  |
-----------------------------------------------||
-----------------------------------------------||
------------------------0h--4h--7--0h--7h--10--||
--0h--3h--6--0h--6h--9-------------------------||


   |--3--|   |--3--|  |--3--|  |--3--|     |--3--|  |--3--|                 
   E  E  E   E  E  E  E  E  E  E  E  E     E  E  E  E  E  E  Q    H         
--10--9--7------------------------------|----------------------------------|
------------10--9--7--9--7--6-----------|----------------------------------|
-------------------------------8--7--5--|----------------------------------|
----------------------------------------|--8--7--5--7--5--4--0-------------|

				


				*Vers 1*



Tempo = 115

    S  S S S S S S S S S S S S S S S    S  S S S S S S S S S S S S  S S  S  
|------------------------------------|-------------------------------------|
|*-----------------------------------|-------------------------------------|
|*-----------------------------------|--------------------------------2h-5-|
|---1p-0-0-0---0-0-0---0-0-0-0-0-0-0-|--1p-0-0-0---0-0-0---0-0-0-4p-0------|

				    ______________________________________
				   |1.					  |
  S  S S S S S S S S S S S S S S S |  S  S S S S S S S S S S S S  S S  S  |  
-----------------------------------|--------------------------------------||
-----------------------------------|-------------------------------------*||
-----------------------------------|--------------------------------2h-5-*||
--1p-0-0-0---0-0-0---0-0-0-0-0-0-0-|--1p-0-0-0---0-0-0---0-0-0-4p-0-------||

 _____________________
|2.		      |
| Q    Q    Q    Q    |    S  S S S S S S S S S S S S S S S  
----------------------||------------------------------------|
----------------------||*-----------------------------------|
------------2----5----||*-----------------------------------|
--0----4--------------||---1p-0-0-0---0-0-0---0-0-0-0-0-0-0-|


  S  S S S S S S S S S S S S  S S  S    S  S S S S S S S S S S S S S S S  
-------------------------------------|-----------------------------------|
-------------------------------------|-----------------------------------|
--------------------------------2h-5-|-----------------------------------|
--1p-0-0-0---0-0-0---0-0-0-4p-0------|--1p-0-0-0---0-0-0---0-0-0-0-0-0-0-|


 _____________________________________  __________________________________
|1.				      ||2.				  |
| S  S S S S S S S S S S S S  S S  S  ||  S  S S S S S S S S S S S S S E  | 
--------------------------------------||----------------------------------|
-------------------------------------*||----------------------------------|
--------------------------------2h-5-*||-------------------2-3-2----------|
--1p-0-0-0---0-0-0---0-0-0-4p-0-------||--1p-0-0-0---0-0-0-------2-4-5-4--|


    S  S S S S S S S S S S S S S S S    S  S S S S S S S S S S S S  S S  S  
|------------------------------------|-------------------------------------|
|*-----------------------------------|-------------------------------------|
|*-----------------------------------|--------------------------------2h-5-|
|---1p-0-0-0---0-0-0---0-0-0-0-0-0-0-|--1p-0-0-0---0-0-0---0-0-0-4p-0------|

				    ______________________________________
				   |1.					  |
  S  S S S S S S S S S S S S S S S |  S  S S S S S S S S S S S S  S S  S  |  
-----------------------------------|--------------------------------------||
-----------------------------------|-------------------------------------*||
-----------------------------------|--------------------------------2h-5-*||
--1p-0-0-0---0-0-0---0-0-0-0-0-0-0-|--1p-0-0-0---0-0-0---0-0-0-4p-0-------||

 ____________________________
|2.			     |                  
| S  S S S S S S S Q    Q    |    
-----------------------------||
-----------------------------||
-------------------5----5----||
--1p-0-0-0---0-0-0-----------||




			*Chorus*


                 
     E.  E.  E  S S S S      E.  E.  E  S S S S Q     
| |---------------------| |--------------------------| |
|3|---------------------|4|--------------------------|3|
|4|------1---3----------|4|------1---3---------------|4|
| |--3----------1-3-3-3-| |--3----------1-3-3-3-3----| |

     E.  E.  E  S S S S      E.  E.  E  S S S S E       E.  E.  E  S S S S  
| |---------------------| |------------------------| |---------------------| |
|3|---------------------|7|------------------------|3|---------------------|4|
|4|------1---3----------|8|------1---3-------------|4|------1---3----------|4|
| |--3----------1-3-3-3-| |--3----------1-3-3-3-3--| |--3----------1-3-3-3-| |


     E.  E.  E  S S S S Q         E.  E.  E  S S S S      E.  E.  E  Q    Q     
| |--------------------------| |---------------------| |-----------------------|
|4|--------------------------|3|---------------------|4|-----------------------|
|4|------1---3---------------|4|------1---3----------|4|------1---3--6----5----|
| |--3----------1-3-3-3-3----| |--3----------1-3-3-3-| |--3--------------------|


  H        H          
--------------------||
-----------8--------||
--4-----------------||
--------------------||




			*End Chorus*



Tempo = 230

     E  E  E  E  E  E  E  E   
||---------------------------|
||*--7--------5--------------|
||*-----0--0-----0--0--5--0--|
||---------------------------|


               |----3----|   |----3----|                                
  E  E  E  E   E    E    E   E    E    E      E  E  E   E  E  E  E  E   
------------------------------------------|----------------------------|
--------------11h--12h--14----------------|----------------------------|
--8--0--7--0----------------10h--12h--13--|--12--0--0--10--0--0--8--0--|
------------------------------------------|----------------------------|


			     _______________________________________________
 __________________________ |2.						    |
|1.                        ||  |---3---|  |---3---|  |---3---|  |----3---|  | 
| E  E  E  E  E  E  E  E   ||  E   E   E  E   E   E  E   E   E  E   E    E  | 
---------------------------||-----------------------------------------------|
--------------------------*||-----------------------------------------------|
--7--0--5--0--4--0--1--0--*||------------------------0h--4h--7--0h--7h--10--|
---------------------------||--0h--3h--6--0h--6h--9-------------------------|


                                            |----3----|   |----3----|   
    E  E  E  E  E  E  E  E     E  E  E  E   E    E    E   E    E    E   
|---------------------------|------------------------------------------|
|*--7--------5--------------|--------------11h--12h--14----------------|
|*-----0--0-----0--0--5--0--|--8--0--7--0----------------10h--12h--13--|
|---------------------------|------------------------------------------|

			     ___________________________
			    |1.				|
   E  E  E   E  E  E  E  E  |  E  E  E  E  E  E  E  E   |  
----------------------------|---------------------------||
----------------------------|--------------------------*||
--12--0--0--10--0--0--8--0--|--7--0--5--0--4--0--1--0--*||
----------------------------|---------------------------||

 ___________________________
|2.                         |   
|  E   E   E   E   H        |  
----------------------------||
--------------11--14--------||
----------12----------------||
--12--15--------------------||




			*Bridge*





   |---3---|   |---3---|   |---3--|   |---3--|   
   E   E   E   E   E   E   E   E  E   E   E  E   
--15--14--12--14--12--14--12--10--9--12--10--9--|
------------------------------------------------|
------------------------------------------------|
------------------------------------------------|


   |--3--|   |--3--|              |--3--|      |--3--|      |--3--|   
   E  E  E   E  E  E  H           E  E  E  S S E  E  E  S S E  E  E   
--10--9--7--10--9--7--6--------|-------------------------------------|
-------------------------------|--8--7--5--7-5-7--5--3--5-3-5--3--2--|
-------------------------------|-------------------------------------|
-------------------------------|-------------------------------------|


  H        H           E  S S S S S S S S S S S S S S  
--3--------3--------|---------------------------------|
--1--------1--------|---------------------------------|
--------------------|---------------------------------|
--------------------|--4--4-4---4-4-4---4-4-4-4-4-4-4-|


  E  S S S S S S S S S S S S S S   
---------------------------------||
---------------------------------||
-----------------5-5-5-5-5-5-5-5-||
--4--4-4---4-4-4-----------------||






			*Vers 2*





     S  S S S S S S S S S S S S S S S  
||------------------------------------|
||*-----------------------------------|
||*-----------------------------------|
||---1p-0-0-0---0-0-0---0-0-0-0-0-0-0-|


  S  S S S S S S S S S S S S  S S  S    S  S S S S S S S S S S S S S S S  
-------------------------------------|-----------------------------------|
-------------------------------------|-----------------------------------|
--------------------------------2h-5-|-----------------------------------|
--1p-0-0-0---0-0-0---0-0-0-4p-0------|--1p-0-0-0---0-0-0---0-0-0-0-0-0-0-|


 _____________________________________  __________________________________
|1.				      ||2.				  |
| S  S S S S S S S S S S S S  S S  S  ||  S  S S S S S S S S S S S S S E  | 
--------------------------------------||----------------------------------|
-------------------------------------*||----------------------------------|
--------------------------------2h-5-*||-------------------2-3-2----------|
--1p-0-0-0---0-0-0---0-0-0-4p-0-------||--1p-0-0-0---0-0-0-------2-4-5-4--|


    S  S S S S S S S S S S S S S S S    S  S S S S S S S S S S S S  S S  S  
|------------------------------------|-------------------------------------|
|*-----------------------------------|-------------------------------------|
|*-----------------------------------|--------------------------------2h-5-|
|---1p-0-0-0---0-0-0---0-0-0-0-0-0-0-|--1p-0-0-0---0-0-0---0-0-0-4p-0------|

				    ______________________________________
				   |1.					  |
  S  S S S S S S S S S S S S S S S |  S  S S S S S S S S S S S S  S S  S  |  
-----------------------------------|--------------------------------------||
-----------------------------------|-------------------------------------*||
-----------------------------------|--------------------------------2h-5-*||
--1p-0-0-0---0-0-0---0-0-0-0-0-0-0-|--1p-0-0-0---0-0-0---0-0-0-4p-0-------||

 ____________________________
|2.			     |                  
| S  S S S S S S S Q    Q    |    
-----------------------------||
-----------------------------||
-------------------5----5----||
--1p-0-0-0---0-0-0-----------||




			*Chorus*


                 
     E.  E.  E  S S S S      E.  E.  E  S S S S Q     
| |---------------------| |--------------------------| |
|3|---------------------|4|--------------------------|3|
|4|------1---3----------|4|------1---3---------------|4|
| |--3----------1-3-3-3-| |--3----------1-3-3-3-3----| |

     E.  E.  E  S S S S      E.  E.  E  S S S S E       E.  E.  E  S S S S  
| |---------------------| |------------------------| |---------------------| |
|3|---------------------|7|------------------------|3|---------------------|4|
|4|------1---3----------|8|------1---3-------------|4|------1---3----------|4|
| |--3----------1-3-3-3-| |--3----------1-3-3-3-3--| |--3----------1-3-3-3-| |


     E.  E.  E  S S S S Q         E.  E.  E  S S S S      E.  E.  E  Q    Q     
| |--------------------------| |---------------------| |-----------------------|
|4|--------------------------|3|---------------------|4|-----------------------|
|4|------1---3---------------|4|------1---3----------|4|------1---3--6----5----|
| |--3----------1-3-3-3-3----| |--3----------1-3-3-3-| |--3--------------------|


  H        H          
--------------------||
-----------8--------||
--4-----------------||
--------------------||





			*End Chorus*



Tempo = 230

     E  E  E  E  E  E  E  E   
||---------------------------|
||*--7--------5--------------|
||*-----0--0-----0--0--5--0--|
||---------------------------|


               |----3----|   |----3----|                                
  E  E  E  E   E    E    E   E    E    E      E  E  E   E  E  E  E  E   
------------------------------------------|----------------------------|
--------------11h--12h--14----------------|----------------------------|
--8--0--7--0----------------10h--12h--13--|--12--0--0--10--0--0--8--0--|
------------------------------------------|----------------------------|


			     _______________________________________________
 __________________________ |2.						    |
|1.                        ||  |---3---|  |---3---|  |---3---|  |----3---|  | 
| E  E  E  E  E  E  E  E   ||  E   E   E  E   E   E  E   E   E  E   E    E  | 
---------------------------||-----------------------------------------------|
--------------------------*||-----------------------------------------------|
--7--0--5--0--4--0--1--0--*||------------------------0h--4h--7--0h--7h--10--|
---------------------------||--0h--3h--6--0h--6h--9-------------------------|


                                             |----3----|   |----3----|   
     E  E  E  E  E  E  E  E     E  E  E  E   E    E    E   E    E    E   
||---------------------------|------------------------------------------|
||*--7--------5--------------|--------------11h--12h--14----------------|
||*-----0--0-----0--0--5--0--|--8--0--7--0----------------10h--12h--13--|
||---------------------------|------------------------------------------|

			   

   E  E  E   E  E  E  E  E     E  E  E  E  E  E  E  E     
----------------------------|---------------------------||
----------------------------|--------------------------*||
--12--0--0--10--0--0--8--0--|--7--0--5--0--4--0--1--0--*||
----------------------------|---------------------------||




			*Bridge to Solo*
		



   W                   W                 
|-------------------|-------------------|
|-------------------|-------------------|
|--0----------------|--L----------------|
|-------------------|-------------------|


  W                   W                
-------------------|-------------------||
-------------------|-------------------||
--L----------------|--L----------------||
-------------------|-------------------||





			*Solo*





   E  E  E  E  E  E  E  E   
|--------------------------|
|--------------------------|
|--7--------5--------------|
|-----0--0-----0--0--5--0--|


  E  E  E  E  E  E  E  E     E  E  E  E  E  E  E  E   
--------------------------|--------------------------|
--------------------------|--------------------------|
--------------------------|--7--------5--------------|
--8--0--7--0--0--0--0--0--|-----0--0-----0--0--5--0--|


              |---3---|  |---3---|                              
  E  E  E  E  E   E   E  E   E   E     E  E  E  E  E  E  E  E   
------------------------------------|--------------------------|
------------------------------------|--------------------------|
-------------------------5h--7h--8--|--7--------5--------------|
--8--0--7--0--4h--5h--7-------------|-----0--0-----0--0--5--0--|


  E  E  E  E  E  E  E  E     E  E  E  E  E  E  E  E     E  E  E  E  Q    Q     
--------------------------|--------------------------|------------------------|
--------------------------|--------------------------|------------------------|
--------------------------|--7--------5--------------|------------------------|
--8--0--7--0--0--0--0--0--|-----0--0-----0--0--5--0--|--7--0--0--1--L----1----|


  E  E  E  E  E  E  E  E     E  E  E  E  E  E  E  E   
--------------------------|--------------------------|
--------------------------|--------------------------|
--7--------5--------------|--------------------------|
-----0--0-----0--0--5--0--|--8--0--7--0--0--0--0--0--|


                                         |---3---|  |---3---|   
  E  E  E  E  E  E  E  E     E  E  E  E  E   E   E  E   E   E   
--------------------------|------------------------------------|
--------------------------|------------------------------------|
--7--------5--------------|-------------------------5h--7h--8--|
-----0--0-----0--0--5--0--|--8--0--7--0--4h--5h--7-------------|


  E  E  E  E  E  E  E  E     E  E  E  E  E  E  E  E   
--------------------------|--------------------------|
--------------------------|--------------------------|
--7--------5--------------|--------------------------|
-----0--0-----0--0--5--0--|--8--0--7--0--0--0--0--0--|


                                                      |----3----|             
  E  E  E  E  E  E  E  E     E  E  E  E  Q    Q       Q    Q    Q    S S S S  
--------------------------|------------------------|-------------------------|
--------------------------|------------------------|-------------------------|
--7--------5--------------|------------------------|--4--------------2-4-4-4-|
-----0--0-----0--0--5--0--|--7--0--0--1--L----1----|-------0----2------------|




Tempo = 115

     |----3----|             
     Q    Q    Q    S S S S  
| |-------------------------| |
|3|-------------------------|4|
|4|--4--------------2-4-4-4-|4|
| |-------0----2------------| |


     |----3----|                      |----3----|             
     Q    Q    Q    S S S S Q         Q    Q    Q    S S S S  
| |------------------------------| |-------------------------| |
|4|------------------------------|3|-------------------------|4|
|4|--4--------------2-4-4-4-4----|4|--4--------------2-4-4-4-|4|
| |-------0----2-----------------| |-------0----2------------| |


     |----3----|                      |----3----|             
     Q    Q    Q    S S S S Q         Q    Q    Q    S S S S  
| |------------------------------| |-------------------------| |
|4|------------------------------|3|-------------------------|4|
|4|--4--------------2-4-4-4-4----|4|--4--------------2-4-4-4-|4|
| |-------0----2-----------------| |-------0----2------------| |


    |----3----|                      |----3----|             
    Q    Q    Q    S S S S Q         Q    Q    Q    S S S S  
| |------------------------------| |-------------------------| |
|4|------------------------------|3|-------------------------|4|
|4|--4--------------2-4-4-4-4----|4|--4--------------2-4-4-4-|4|
| |-------0----2-----------------| |-------0----2------------| |


     |----3----|                                                            
     Q    Q    Q    S S S S Q      
| |------------------------------||
|4|------------------------------||
|4|--4--------------2-4-4-4-4----||
| |-------0----2-----------------||




			*After Solo*



                                                            
    E.  S H           E.  S E  S S S S S S  
||-----------------|-----------------------|
||-----------------|-----------------------|
||--6---6----------|--6---6-L--6-4-7-6-4---|
||-----------------|---------------------5-|


  E.  S H           E.  S E  S S S S S S      E.  E.  E  E     E.  E.  E  E   
-----------------|-----------------------| |----------------|----------------|
-----------------|-----------------------|5|----------------|----------------|
--6---6----------|--6---6-L--6-4-7-6-4---|8|--6---6---6--4--|--6---6---6--4--|
-----------------|---------------------5-| |----------------|----------------|


  E.  E.  E   E     E.  E.   E   E     E.   E.   E   E      E.   E.   E   E   
-----------------|------------------|-------------------|--10---12---14--15--|
-----------------|--7---8---10--11--|--8---10---11--13--|--------------------|
--6---7---9--10--|------------------|-------------------|--------------------|
-----------------|------------------|-------------------|--------------------|


  E.  E.   E   E     E.   E.   E  E          E  E  E  E  E  S S Q     
------------------|------------------|| ||---------------------------| |
------------------|---------------9--||4||*--------------------------|3|
------------------|--8---10---11-----||4||*--------------------------|4|
--7---8---10--11--|------------------|| ||---8--------8-----6-8-9----| |


     E  E  E  E  Q       E  E  E  E  Q       E  E  E  E  E  E   
| |-------------------|-------------------|--------------------|
|3|-------------------|-------------------|--------------------|
|4|-----------6--L----|-------------------|-----------8--L--7--|
| |--L--0--L----------|--8--------9--L----|--8-----------------|


  Q    E  E  E  S S    Q    S S  Q.              W                 
--------------------|--------------------|| ||---8----------------|
--------------------|-------------------*||4||*--8----------------|
--------------------|-------7-8-10------*||4||*--6----------------|
--8----8--------6-7-|--8-----------------|| ||--------------------|


  H        H           W                   H        H           
--L-----------------|--6----------------|--L------------------||
--L-----------------|--6----------------|--L-----------------*||
--L-----------------|--4----------------|--L-----------------*||
-----------2--------|-------------------|-----------5---------||


  S S S S E  S S S S E  S S S S    S S S S E  S S S S S S Q                 
--------------------------------|------------------------------||
--------------------------------|------------------------------||
--------------------------------|------------------------------||
--5-5-5-5----5-5-5-5----5-5-5-5-|--5-5-5-5----5-5-5-5-5-5-0----||




			*Bridge* (2 Bars)





			*Pre Vers*


Tempo = 115

    S  S S S S S S S S S S S S S S S    S  S S S S S S S S S S S S  S S  S  
|------------------------------------|-------------------------------------|
|*-----------------------------------|-------------------------------------|
|*-----------------------------------|--------------------------------2h-5-|
|---1p-0-0-0---0-0-0---0-0-0-0-0-0-0-|--1p-0-0-0---0-0-0---0-0-0-4p-0------|

				    ______________________________________
				   |1.					  |
  S  S S S S S S S S S S S S S S S |  S  S S S S S S S S S S S S  S S  S  |  
-----------------------------------|--------------------------------------||
-----------------------------------|-------------------------------------*||
-----------------------------------|--------------------------------2h-5-*||
--1p-0-0-0---0-0-0---0-0-0-0-0-0-0-|--1p-0-0-0---0-0-0---0-0-0-4p-0-------||

 ________________________________________
|2.					 |
| |--3--|    |-3-|    |--3-|    |-3-|    |                                       
| S  S  S E  S S S E  S  S S E  S S S E  |  
-----------------------------------------||
-----------------------------------------||
-----------------------------------------||
--0h-4p-0-0--4-7-4-4--7-10-7-7--4-7-4-1--||




			*Vers 3*


                                        
    S  S S S S S S S S S S S S S S S    S  S S S S S S S S S S S S  S S  S  
|------------------------------------|-------------------------------------|
|*-----------------------------------|-------------------------------------|
|*-----------------------------------|--------------------------------2h-5-|
|---1p-0-0-0---0-0-0---0-0-0-0-0-0-0-|--1p-0-0-0---0-0-0---0-0-0-4p-0------|

				    ______________________________________
				   |1.					  |
  S  S S S S S S S S S S S S S S S |  S  S S S S S S S S S S S S  S S  S  |  
-----------------------------------|--------------------------------------||
-----------------------------------|-------------------------------------*||
-----------------------------------|--------------------------------2h-5-*||
--1p-0-0-0---0-0-0---0-0-0-0-0-0-0-|--1p-0-0-0---0-0-0---0-0-0-4p-0-------||

 ____________________________
|2.			     |                  
| S  S S S S S S S Q    Q    |    
-----------------------------||
-----------------------------||
-------------------5----5----||
--1p-0-0-0---0-0-0-----------||




			*Chorus*


                 
     E.  E.  E  S S S S      E.  E.  E  S S S S Q     
| |---------------------| |--------------------------| |
|3|---------------------|4|--------------------------|3|
|4|------1---3----------|4|------1---3---------------|4|
| |--3----------1-3-3-3-| |--3----------1-3-3-3-3----| |

     E.  E.  E  S S S S      E.  E.  E  S S S S E       E.  E.  E  S S S S  
| |---------------------| |------------------------| |---------------------| |
|3|---------------------|7|------------------------|3|---------------------|4|
|4|------1---3----------|8|------1---3-------------|4|------1---3----------|4|
| |--3----------1-3-3-3-| |--3----------1-3-3-3-3--| |--3----------1-3-3-3-| |


     E.  E.  E  S S S S Q         E.  E.  E  S S S S      E.  E.  E  Q    Q     
| |--------------------------| |---------------------| |-----------------------|
|4|--------------------------|3|---------------------|4|-----------------------|
|4|------1---3---------------|4|------1---3----------|4|------1---3--6----5----|
| |--3----------1-3-3-3-3----| |--3----------1-3-3-3-| |--3--------------------|


  H        H          
--------------------||
-----------8--------||
--4-----------------||
--------------------||



				*End Chorus -> Ending*



Tempo = 230
                                            |----3----|   |----3----|   
    E  E  E  E  E  E  E  E     E  E  E  E   E    E    E   E    E    E   
|---------------------------|------------------------------------------|
|*--7--------5--------------|--------------11h--12h--14----------------|
|*-----0--0-----0--0--5--0--|--8--0--7--0----------------10h--12h--13--|
|---------------------------|------------------------------------------|


			     ____________________________
			    |1.			         |
   E  E  E  E  E  E  E  E   |  E  E  E  E  E  E  E  E    | 
----------------------------|---------------------------||
----------------------------|--------------------------*||
--12--0--0--10--0--0--8--0--|--7--0--5--0--4--0--1--0--*||
----------------------------|---------------------------||

 _______________________________________________
|2.						|
|  |---3---|  |---3---|  |---3---|  |----3---|  |                              
|  E   E   E  E   E   E  E   E   E  E   E    E  |    E  E  E  E  E  E  E  E   
|-----------------------------------------------||---------------------------|
|-----------------------------------------------||*--7--------5--------------|
|------------------------0h--4h--7--0h--7h--10--||*-----0--0-----0--0--5--0--|
|--0h--3h--6--0h--6h--9-------------------------||---------------------------|


               |----3----|   |----3----|                                
  E  E  E  E   E    E    E   E    E    E      E  E  E   E  E  E  E  E   
------------------------------------------|----------------------------|
--------------11h--12h--14----------------|----------------------------|
--8--0--7--0----------------10h--12h--13--|--12--0--0--10--0--0--8--0--|
------------------------------------------|----------------------------|


  E  E  E  E  E  E  E  E       Q.     Q.     Q       Q.     Q.     Q     
---------------------------||---------------------|---------------------|
--------------------------*||---------------------|---------------------|
--7--0--5--0--4--0--1--0--*||--0-------------1----|--0-------------1----|
---------------------------||---------3-----------|---------3-----------|


                                            |----3----|    |----3----|    
    E  E  E  E  E  E  E  E     E  E  E  E   E    E    E    E    E    E    
|---------------------------|--------------------------------------------|
|*--------------------------|--------------------------------------------|
|*--7--------5--------------|--------------11h--12h--14h-----------------|
|------0--0-----0--0--5--0--|--8--0--7--0-----------------10h--12h--13h--|


   E  E  E   E  E  E  E  E     E  E  E  E  E  E  E  E     
----------------------------|---------------------------||
----------------------------|--------------------------*||
----------------------------|--------------------------*||
--12--0--0--10--0--0--8--0--|--7--0--5--0--4--0--1--0---||





			*Ending*




     E  E  E  E  H        Q       E  E  E  E  H        Q     
| |----------------------------|----------------------------|
|5|----------------------------|----------------------------|
|4|--7--------5----------------|--7--------5----------------|
| |-----0--0-------------------|-----0--0-------------------|


  E  E  E  E  H        Q       E  E  E  E  E  E  E  E  E  E   
----------------------------|--------------------------------| |
----------------------------|--------------------------------|4|
--7--------5----------------|--7--------5--------------------|4|
-----0--0-------------------|-----0--0-----0--0--8--0--0--7--| |


     E  E  E  E  E  E  E  E     W                   W                 
| |--------------------------|-------------------|-------------------|
|4|--------------------------|-------------------|-------------------|
|4|--------------------------|-------------------|-------------------|
| |--0--0--5--0--0--4--0--0--|--1----------------|--L----------------|


  E  E  E  E  E  E  E  E     E  E  E  E  E  E  E  E    
--------------------------|--------------------------||
--------------------------|--------------------------||
--------------------------|--------------------------||
--L--0--0--0-----0--0--0--|-----0--0--0--0--0--0--0--||




Duration Legend
---------------
W - whole
H - half
Q - quarter
E - 8th
S - 16th
T - 32nd
X - 64th
. - note dotted
|-n-|  - n-tuplets


Tablature Legend
----------------
L - tied note
x - dead note
g - grace note
(n) - ghost note
> - accentuded note
NH - natural harmonic
AH - artificial harmonic
TH - tapped harmonic
SH - semi harmonic
PH - pitch harmonic
h - hammer on
p - pull off
b - bend
br - bendRelease
pb - preBend
pbr - preBendRelease
brb - bendReleaseBend
\n/ - tremolo bar dip
\n - tremolo bar dive
-/n - tremolo bar Release up
/n\ - tremolo bar inverted dip
/n - tremolo bar return
-\n - tremolo bar Release down
S - shift slide
s - legato slide
/ -  slide into from below or out of upwards
\ -  slide into from above or out of downwards
~ - vibrato
W - wide vibrato
tr - trill
TP - tremolo picking
T - tapping
S - slap
P - pop
< - fade in
^ - brush up
v - brush down
comments
print report bad tab
4 comments total. Showing first comments.
0 reply
slayer5123 wrote on October 30 2007, 03:03 pm

very nice tab very clear great job!

0 reply
AlexiLaiho227 wrote on March 11 2008, 09:07 pm

mislabled.

it's "Domination" not "Domination Game".

0 reply
Dugihilation wrote on August 19 2008, 06:39 am

Yeah i know, the UG people changed it to "Domination Game" for some reason :\

I want to post or [tab]
guest
You may want to rate the tab now too:
select rating
Please do not post tabs as comments. Select "correction" instead!