Oops, an error
Loading. Please wait.

Domination Tab

ver1
ver1

Whole song

Interactive

More versions @911Tabs.com
20,194 views 15 this week
5 commentsread comments
1 2 3 4 5
excellent!
x 11
Autoscroll
+/-
esc
set tempo
stop
Contributor
WARNING: You are trying to view
                                    content from Ultimate-Guitar.com
                                    in an unauthorized application,
                                    which is prohibited.

                                    Please use an official Ultimate
                                    Guitar Tabs application for iPhone,
                                    iPad or Android to access legitimate
                                    chords, guitar, bass, and drum tabs
                                    from Ultimate-Guitar.com database.

                                    Type "ultimate guitar tabs" in Apple
                                    App Store's or Android Market's
                                    search to find the application.
                   ***Symphony X - Domination***
		      -----------------------
		       Ripped by Dugihilation

				

				*Intro*




Tempo = 230
			    ________  _______
 			   |1.	    ||2.     |
                           |        ||       |       PM PM    PM PM    PM  
                           |        ||       |    E  E  E  E  E  E  E  E   
D||--------|-------|-------|--------||-------||---------------------------|
A||--------|-------|-------|--------||-------||---------------------------|
F||*-------|-------|-------|-------*||-------||*--7--------5--------------|
C||*-------|-------|-------|-------*||-------||*-----0--0-----0--0--5--0--|
G||--------|-------|-------|--------||-------||---------------------------|
D||--------|-------|-------|--------||-------||---------------------------|




     PM    PM                                    PM PM     PM PM    PM  
               |----3----|   |----3----|                                
  E  E  E  E   E    E    E   E    E    E      E  E  E   E  E  E  E  E   
------------------------------------------|----------------------------|
------------------------------------------|----------------------------|
--------------11h--12h--14----------------|----------------------------|
--8--0--7--0----------------10h--12h--13--|--12--0--0--10--0--0--8--0--|
------------------------------------------|----------------------------|
------------------------------------------|----------------------------|


 __________________________  _______________________________________________
|1.			   ||2.						    |
|    PM    PM    PM    PM  ||                                               |   
|                          ||  |---3---|  |---3---|  |---3---|  |----3---|  | 
| E  E  E  E  E  E  E  E   ||  E   E   E  E   E   E  E   E   E  E   E    E  | 
---------------------------||-----------------------------------------------|
---------------------------||-----------------------------------------------|
--------------------------*||-----------------------------------------------|
--7--0--5--0--4--0--1--0--*||------------------------0h--4h--7--0h--7h--10--|
---------------------------||--0h--3h--6--0h--6h--9-------------------------|
---------------------------||-----------------------------------------------|


       PM PM    PM PM    PM       PM    PM                              
                                            |----3----|   |----3----|   
    E  E  E  E  E  E  E  E     E  E  E  E   E    E    E   E    E    E   
|---------------------------|------------------------------------------|
|---------------------------|------------------------------------------|
|*--7--------5--------------|--------------11h--12h--14----------------|
|*-----0--0-----0--0--5--0--|--8--0--7--0----------------10h--12h--13--|
|---------------------------|------------------------------------------|
|---------------------------|------------------------------------------|


			     ___________________________
			    |1.				|
      PM PM     PM PM    PM |     PM    PM    PM    PM  |  
   E  E  E   E  E  E  E  E  |  E  E  E  E  E  E  E  E   |  
----------------------------|---------------------------||
----------------------------|---------------------------||
----------------------------|--------------------------*||
--12--0--0--10--0--0--8--0--|--7--0--5--0--4--0--1--0--*||
----------------------------|---------------------------||
----------------------------|---------------------------||

 ______________________________________________
|2.					       |
|                                              |       PM PM    PM PM    PM  
| |---3---|  |---3---|  |---3---|  |----3---|  |                              
| E   E   E  E   E   E  E   E   E  E   E    E  |    E  E  E  E  E  E  E  E   
-----------------------------------------------||---------------------------|
-----------------------------------------------||---------------------------|
-----------------------------------------------||*--------------------------|
------------------------0h--4h--7--0h--7h--10--||*--7--------5--------------|
--0h--3h--6--0h--6h--9-------------------------||------0--0-----0--0--5--0--|
-----------------------------------------------||---------------------------|


     PM    PM                                    PM PM     PM PM    PM  
               |----3----|   |----3----|                                
  E  E  E  E   E    E    E   E    E    E      E  E  E   E  E  E  E  E   
------------------------------------------|----------------------------|
------------------------------------------|----------------------------|
------------------------------------------|----------------------------|
--------------11h--12h--14----------------|----------------------------|
--8--0--7--0----------------10h--12h--13--|--12--0--0--10--0--0--8--0--|
------------------------------------------|----------------------------|



 __________________________  _______________________________________________
|1.			   ||2.						    |
|    PM    PM    PM    PM  ||                                               |   
|                          ||  |---3---|  |---3---|  |---3---|  |----3---|  | 
| E  E  E  E  E  E  E  E   ||  E   E   E  E   E   E  E   E   E  E   E    E  | 
---------------------------||-----------------------------------------------|
---------------------------||-----------------------------------------------|
--------------------------*||-----------------------------------------------|
--------------------------*||-----------------------------------------------|
--7--0--5--0--4--0--1--0---||------------------------0h--4h--7--0h--7h--10--|
---------------------------||--0h--3h--6--0h--6h--9-------------------------|


       PM PM    PM PM    PM       PM    PM                              
                                            |----3----|   |----3----|   
    E  E  E  E  E  E  E  E     E  E  E  E   E    E    E   E    E    E   
|---------------------------|------------------------------------------|
|---------------------------|------------------------------------------|
|*--------------------------|------------------------------------------|
|*--7--------5--------------|--------------11h--12h--14----------------|
|------0--0-----0--0--5--0--|--8--0--7--0----------------10h--12h--13--|
|---------------------------|------------------------------------------|

			
			     ___________________________
			    |1.			        |
      PM PM     PM PM    PM |     PM    PM    PM    PM  |  
   E  E  E   E  E  E  E  E  |  E  E  E  E  E  E  E  E   |  
----------------------------|---------------------------||
----------------------------|---------------------------||
----------------------------|--------------------------*||
----------------------------|--------------------------*||
--12--0--0--10--0--0--8--0--|--7--0--5--0--4--0--1--0---||
----------------------------|---------------------------||


 ______________________________________________
|2.					       |
| |---3---|  |---3---|  |---3---|  |----3---|  | 
| E   E   E  E   E   E  E   E   E  E   E    E  | 
-----------------------------------------------||
-----------------------------------------------||
-----------------------------------------------||
-----------------------------------------------||
------------------------0h--4h--7--0h--7h--10--||
--0h--3h--6--0h--6h--9-------------------------||


                                                             \1/            
   |--3--|   |--3--|  |--3--|  |--3--|     |--3--|  |--3--|                 
   E  E  E   E  E  E  E  E  E  E  E  E     E  E  E  E  E  E  H        Q     
----------------------------------------|----------------------------------||
----------------------------------------|----------------------------------||
--10--9--7------------------------------|----------------------------------||
------------10--9--7--9--7--6-----------|----------------------------------||
-------------------------------8--7--5--|----------------------------------||
----------------------------------------|--8--7--5--7--5--4--0-------------||







			*Vers 1*





Tempo = 115

         PM PM   PM PM PM   PM PM PM PM PM PM PM  
    S  S S  S  S S  S  S  S S  S  S  S  S  S  S   
|------------------------------------------------|
|------------------------------------------------|
|*-----------------------------------------------|
|*-----------------------------------------------|
|------------------------------------------------|
|---1p-0-0--0----0--0--0----0--0--0--0--0--0--0--|


       PM PM   PM PM PM   PM PM PM            
  S  S S  S  S S  S  S  S S  S  S  S  S S  S  
---------------------------------------------|
---------------------------------------------|
---------------------------------------------|
---------------------------------------------|
----------------------------------------2h-5-|
--1p-0-0--0----0--0--0----0--0--0--4p-0------|


       PM PM   PM PM PM   PM PM PM PM PM PM PM  
  S  S S  S  S S  S  S  S S  S  S  S  S  S  S   
-----------------------------------------------|
-----------------------------------------------|
-----------------------------------------------|
-----------------------------------------------|
-----------------------------------------------|
--1p-0-0--0----0--0--0----0--0--0--0--0--0--0--|

 _____________________________________________
|1.					      |
|      PM PM   PM PM PM   PM PM PM            |  
| S  S S  S  S S  S  S  S S  S  S  S  S S  S  |  
----------------------------------------------||
----------------------------------------------||
---------------------------------------------*||
---------------------------------------------*||
----------------------------------------2h-5--||
--1p-0-0--0----0--0--0----0--0--0--4p-0-------||

 ______________________________________________
|2.					       |
|  |-3-|  |-3-|  |-3-| |-3-| |-3-| |-3-|       | 
|  S S S  S S S  S S S S S S S S S S S S Q     | 
-----------------------------------------------||
--12-9-5-13-9-5-12-9-5-------------------------||
-----------------------------------------------||
-----------------------9-6-2-------------------||
-----------------------------5-7-8-------------||
-----------------------------------5-7-8-4~----||


         PM PM   PM PM PM   PM PM PM PM PM PM PM  
    S  S S  S  S S  S  S  S S  S  S  S  S  S  S   
|------------------------------------------------|
|------------------------------------------------|
|*-----------------------------------------------|
|*-----------------------------------------------|
|------------------------------------------------|
|---1p-0-0--0----0--0--0----0--0--0--0--0--0--0--|


       PM PM   PM PM PM   PM PM PM            
  S  S S  S  S S  S  S  S S  S  S  S  S S  S  
---------------------------------------------|
---------------------------------------------|
---------------------------------------------|
---------------------------------------------|
----------------------------------------2h-5-|
--1p-0-0--0----0--0--0----0--0--0--4p-0------|


       PM PM   PM PM PM   PM PM PM PM PM PM PM  
  S  S S  S  S S  S  S  S S  S  S  S  S  S  S   
-----------------------------------------------|
-----------------------------------------------|
-----------------------------------------------|
-----------------------------------------------|
-----------------------------------------------|
--1p-0-0--0----0--0--0----0--0--0--0--0--0--0--|


 _____________________________________________
|1.					      |
|      PM PM   PM PM PM   PM PM PM            |  
| S  S S  S  S S  S  S  S S  S  S  S  S S  S  | 
----------------------------------------------||
----------------------------------------------||
---------------------------------------------*||
---------------------------------------------*||
----------------------------------------2h-5--||
--1p-0-0--0----0--0--0----0--0--0--4p-0-------||

 ______________________________________
|				       |
|      PM PM   PM PM PM                | 
| S  S S  S  S S  S  S  S S S S S S E  | 
---------------------------------------|
---------------------------------------|
---------------------------------------|
------------------------4-5-4----------|
------------------------2-3-2-4-6-7-6--|
--1p-0-0--0----0--0--0--------2-4-5-4--|


         PM PM   PM PM PM   PM PM PM PM PM PM PM  
    S  S S  S  S S  S  S  S S  S  S  S  S  S  S   
|------------------------------------------------|
|------------------------------------------------|
|*-----------------------------------------------|
|*-----------------------------------------------|
|------------------------------------------------|
|---1p-0-0--0----0--0--0----0--0--0--0--0--0--0--|


       PM PM   PM PM PM   PM PM PM            
  S  S S  S  S S  S  S  S S  S  S  S  S S  S  
---------------------------------------------|
---------------------------------------------|
---------------------------------------------|
---------------------------------------------|
----------------------------------------2h-5-|
--1p-0-0--0----0--0--0----0--0--0--4p-0------|


       PM PM   PM PM PM   PM PM PM PM PM PM PM  
  S  S S  S  S S  S  S  S S  S  S  S  S  S  S   
-----------------------------------------------|
-----------------------------------------------|
-----------------------------------------------|
-----------------------------------------------|
-----------------------------------------------|
--1p-0-0--0----0--0--0----0--0--0--0--0--0--0--|


 _____________________________________________
|1.					      |
|      PM PM   PM PM PM   PM PM PM            |  
| S  S S  S  S S  S  S  S S  S  S  S  S S  S  | 
----------------------------------------------||
----------------------------------------------||
---------------------------------------------*||
---------------------------------------------*||
----------------------------------------2h-5--||
--1p-0-0--0----0--0--0----0--0--0--4p-0-------||

 ____________________________________
|2.				     |
|      PM PM   PM PM PM              | 
| S  S S  S  S S  S  S  S S S S Q    | 
-------------------------------------||
-------------------------------------||
-------------------------------------||
------------------------7-7-7-7-7----||
------------------------5-5-5-5-5----||
--1p-0-0--0----0--0--0---------------||






			*Chorus*




                    PM PM  
     E.  E.  E  S S S  S   
| |-----------------------| |
|3|-----------------------|4|
| |-----------------------| |
| |------3---5------------| |
|4|--5---1---3--3-5-------|4|
| |--3----------1-3-3--3--| |

 
                    PMPM    pmpm                    PM PM                     PM PM     
     E.  E.  E  S S S S s s s s      E.  E.  E  S S S  S       E.  E.  E  S S S  S  s s  
| |-----------------------------| |-----------------------| |---------------------------| |
|4|-----------------------------|4|-----------------------|7|---------------------------|3|
| |-----------------------------| |-----------------------| |---------------------------| |
| |------3---5------------------| |------3---5------------| |------3---5----------------| |
|4|--5---1---3--6-5-----6-5-----|4|--5---1---3--3-5-------|8|--5---1---3--3-5-------6-5-|4|
| |--3----------4-3-3-3-4-3-3-3-| |--3----------1-3-3--3--| |--3----------1-3-3--3--4-3-| |


                    PM PM                     PM PM                          PM PM  
     E.  E.  E  S S S  S       E.  E.  E  S S S  S  s s       E.  E.  E  S S S  S s s
| |-----------------------| |----------------------------| |--------------------------| |
|3|-----------------------|4|----------------------------|3|--------------------------|4|
| |-----------------------| |----------------------------| |--------------------------| |
| |------3---5------------| |------3---5-----------------| |------3---5---------------| |
|4|--5---1---3--3-5-------|4|--5---1---3--6-5-------6-5--|4|--5---1---3--3-5------6-5-|4|
| |--3----------1-3-3--3--| |--3----------4-3-3--3--4-3--| |--3----------1-3-3--3-4-3-| |
-

                                                
  E.  E.  E  Q    Q       H        H           
-----------------------|--------------------||
-----------------------|--------------------||
-----------------------|--------------------||
------3---5------------|-----------8--------||
--5---1---3--6----5----|--4-----------------||
--3--------------------|--------------------||





			*After Chorus*




Tempo = 230


        PM PM    PM PM    PM  
     E  E  E  E  E  E  E  E   
||---------------------------|
||---------------------------|
||*--------------------------|
||*--7--------5--------------|
||------0--0-----0--0--5--0--|
||---------------------------|


     PM    PM                                    PM PM     PM PM    PM  
               |----3----|   |----3----|                                
  E  E  E  E   E    E    E   E    E    E      E  E  E   E  E  E  E  E   
------------------------------------------|----------------------------|
------------------------------------------|----------------------------|
------------------------------------------|----------------------------|
--------------11h--12h--14----------------|----------------------------|
--8--0--7--0----------------10h--12h--13--|--12--0--0--10--0--0--8--0--|
------------------------------------------|----------------------------|


 __________________________  _______________________________________________
|1.			   ||2.						    |
|    PM    PM    PM    PM  ||                                               |   
|                          ||  |---3---|  |---3---|  |---3---|  |----3---|  | 
| E  E  E  E  E  E  E  E   ||  E   E   E  E   E   E  E   E   E  E   E    E  |
---------------------------||-----------------------------------------------|
---------------------------||-----------------------------------------------|
--------------------------*||-----------------------------------------------|
--------------------------*||-----------------------------------------------|
--7--0--5--0--4--0--1--0---||------------------------0h--4h--7--0h--7h--10--|
---------------------------||--0h--3h--6--0h--6h--9-------------------------|


       PM PM    PM PM    PM       PM    PM                              
                                            |----3----|   |----3----|   
    E  E  E  E  E  E  E  E     E  E  E  E   E    E    E   E    E    E   
||---------------------------|------------------------------------------|
||---------------------------|------------------------------------------|
||*--------------------------|------------------------------------------|
||*--7--------5--------------|--------------11h--12h--14----------------|
||------0--0-----0--0--5--0--|--8--0--7--0----------------10h--12h--13--|
||---------------------------|------------------------------------------|

			     ___________________________
			    |1.				|
      PM PM     PM PM    PM |     PM    PM    PM    PM  |  
   E  E  E   E  E  E  E  E  |  E  E  E  E  E  E  E  E   |  
----------------------------|---------------------------||
----------------------------|---------------------------||
----------------------------|--------------------------*||
----------------------------|--------------------------*||
--12--0--0--10--0--0--8--0--|--7--0--5--0--4--0--1--0---||
----------------------------|---------------------------||


 ___________________________
|2.                         |   
|  E   E   E   E   H        |   
----------------------------||
----------------------------||
----------------------------||
--------------11--14--------||
----------12----------------||
--12--15--------------------||




			*Pre Vers*




   |---3---|   |---3---|   |---3--|   |---3--|   
   E   E   E   E   E   E   E   E  E   E   E  E   
||------------------------------------------------|
||------------------------------------------------|
||--15--14--12--14--12--14--12--10--9--12--10--9--|
||------------------------------------------------|
||------------------------------------------------|
||------------------------------------------------|


   |--3--|   |--3--|              |--3--|      |--3--|      |--3--|   
   E  E  E   E  E  E  H           E  E  E  S S E  E  E  S S E  E  E   
-------------------------------|-------------------------------------|
-------------------------------|-------------------------------------|
--10--9--7--10--9--7--6--------|-------------------------------------|
-------------------------------|--8--7--5--7-5-7--5--3--5-3-5--3--2--|
-------------------------------|-------------------------------------|
-------------------------------|-------------------------------------|


                          PM PM   PM PM PM   PM PM PM PM PM PM PM  
  H        H           E  S  S  S S  S  S  S S  S  S  S  S  S  S   
--------------------|---------------------------------------------|
--------------------|---------------------------------------------|
--3--------3--------|---------------------------------------------|
--1--------1--------|---------------------------------------------|
--------------------|--6------------------------------------------|
--------------------|--4--4--4----4--4--4----4--4--4--4--4--4--4--|


     PM PM   PM PM PM                  
  E  S  S  S S  S  S  S S S S S S S S  
--------------------------------------|
--------------------------------------|
--------------------------------------|
----------------------7-7-7-7-7-7-7-7-|
--6-------------------5-5-5-5-5-5-5-5-|
--4--4--4----4--4--4------------------|





			*Vers 2*



Tempo = 115

         PM PM   PM PM PM   PM PM PM PM PM PM PM  
    S  S S  S  S S  S  S  S S  S  S  S  S  S  S   
|------------------------------------------------|
|------------------------------------------------|
|*-----------------------------------------------|
|*-----------------------------------------------|
|------------------------------------------------|
|---1p-0-0--0----0--0--0----0--0--0--0--0--0--0--|


       PM PM   PM PM PM   PM PM PM            
  S  S S  S  S S  S  S  S S  S  S  S  S S  S  
---------------------------------------------|
---------------------------------------------|
---------------------------------------------|
---------------------------------------------|
----------------------------------------2h-5-|
--1p-0-0--0----0--0--0----0--0--0--4p-0------|


       PM PM   PM PM PM   PM PM PM PM PM PM PM  
  S  S S  S  S S  S  S  S S  S  S  S  S  S  S   
-----------------------------------------------|
-----------------------------------------------|
-----------------------------------------------|
-----------------------------------------------|
-----------------------------------------------|
--1p-0-0--0----0--0--0----0--0--0--0--0--0--0--|


 _____________________________________________
|1.					      |
|      PM PM   PM PM PM   PM PM PM            |  
| S  S S  S  S S  S  S  S S  S  S  S  S S  S  | 
----------------------------------------------||
----------------------------------------------||
---------------------------------------------*||
---------------------------------------------*||
----------------------------------------2h-5--||
--1p-0-0--0----0--0--0----0--0--0--4p-0-------||

 ______________________________________
|				       |
|      PM PM   PM PM PM                | 
| S  S S  S  S S  S  S  S S S S S S E  | 
---------------------------------------|
---------------------------------------|
---------------------------------------|
------------------------4-5-4----------|
------------------------2-3-2-4-6-7-6--|
--1p-0-0--0----0--0--0--------2-4-5-4--|


         PM PM   PM PM PM   PM PM PM PM PM PM PM  
    S  S S  S  S S  S  S  S S  S  S  S  S  S  S   
|------------------------------------------------|
|------------------------------------------------|
|*-----------------------------------------------|
|*-----------------------------------------------|
|------------------------------------------------|
|---1p-0-0--0----0--0--0----0--0--0--0--0--0--0--|


       PM PM   PM PM PM   PM PM PM            
  S  S S  S  S S  S  S  S S  S  S  S  S S  S  
---------------------------------------------|
---------------------------------------------|
---------------------------------------------|
---------------------------------------------|
----------------------------------------2h-5-|
--1p-0-0--0----0--0--0----0--0--0--4p-0------|


       PM PM   PM PM PM   PM PM PM PM PM PM PM  
  S  S S  S  S S  S  S  S S  S  S  S  S  S  S   
-----------------------------------------------|
-----------------------------------------------|
-----------------------------------------------|
-----------------------------------------------|
-----------------------------------------------|
--1p-0-0--0----0--0--0----0--0--0--0--0--0--0--|


 _____________________________________________
|1.					      |
|      PM PM   PM PM PM   PM PM PM            |  
| S  S S  S  S S  S  S  S S  S  S  S  S S  S  | 
----------------------------------------------||
----------------------------------------------||
---------------------------------------------*||
---------------------------------------------*||
----------------------------------------2h-5--||
--1p-0-0--0----0--0--0----0--0--0--4p-0-------||

 ____________________________________
|2.				     |
|      PM PM   PM PM PM              | 
| S  S S  S  S S  S  S  S S S S Q    | 
-------------------------------------||
-------------------------------------||
-------------------------------------||
------------------------7-7-7-7-7----||
------------------------5-5-5-5-5----||
--1p-0-0--0----0--0--0---------------||






			*Chorus*




                    PM PM  
     E.  E.  E  S S S  S   
| |-----------------------| |
|3|-----------------------|4|
| |-----------------------| |
| |------3---5------------| |
|4|--5---1---3--3-5-------|4|
| |--3----------1-3-3--3--| |

 
                    PMPM    pmpm                    PM PM                     PM PM     
     E.  E.  E  S S S S s s s s      E.  E.  E  S S S  S       E.  E.  E  S S S  S  s s  
| |-----------------------------| |-----------------------| |---------------------------| |
|4|-----------------------------|4|-----------------------|7|---------------------------|3|
| |-----------------------------| |-----------------------| |---------------------------| |
| |------3---5------------------| |------3---5------------| |------3---5----------------| |
|4|--5---1---3--6-5-----6-5-----|4|--5---1---3--3-5-------|8|--5---1---3--3-5-------6-5-|4|
| |--3----------4-3-3-3-4-3-3-3-| |--3----------1-3-3--3--| |--3----------1-3-3--3--4-3-| |


                    PM PM                     PM PM                          PM PM  
     E.  E.  E  S S S  S       E.  E.  E  S S S  S  s s       E.  E.  E  S S S  S s s
| |-----------------------| |----------------------------| |--------------------------| |
|3|-----------------------|4|----------------------------|3|--------------------------|4|
| |-----------------------| |----------------------------| |--------------------------| |
| |------3---5------------| |------3---5-----------------| |------3---5---------------| |
|4|--5---1---3--3-5-------|4|--5---1---3--6-5-------6-5--|4|--5---1---3--3-5------6-5-|4|
| |--3----------1-3-3--3--| |--3----------4-3-3--3--4-3--| |--3----------1-3-3--3-4-3-| |
-

                                                
  E.  E.  E  Q    Q       H        H           
-----------------------|--------------------||
-----------------------|--------------------||
-----------------------|--------------------||
------3---5------------|-----------8--------||
--5---1---3--6----5----|--4-----------------||
--3--------------------|--------------------||



			*After Chorus*




Tempo = 230


        PM PM    PM PM    PM  
     E  E  E  E  E  E  E  E   
||---------------------------|
||---------------------------|
||*--------------------------|
||*--7--------5--------------|
||------0--0-----0--0--5--0--|
||---------------------------|


     PM    PM                                    PM PM     PM PM    PM  
               |----3----|   |----3----|                                
  E  E  E  E   E    E    E   E    E    E      E  E  E   E  E  E  E  E   
------------------------------------------|----------------------------|
------------------------------------------|----------------------------|
------------------------------------------|----------------------------|
--------------11h--12h--14----------------|----------------------------|
--8--0--7--0----------------10h--12h--13--|--12--0--0--10--0--0--8--0--|
------------------------------------------|----------------------------|


 __________________________  _______________________________________________
|1.			   ||2.						    |
|    PM    PM    PM    PM  ||                                               |   
|                          ||  |---3---|  |---3---|  |---3---|  |----3---|  | 
| E  E  E  E  E  E  E  E   ||  E   E   E  E   E   E  E   E   E  E   E    E  |
---------------------------||-----------------------------------------------|
---------------------------||-----------------------------------------------|
--------------------------*||-----------------------------------------------|
--------------------------*||-----------------------------------------------|
--7--0--5--0--4--0--1--0---||------------------------0h--4h--7--0h--7h--10--|
---------------------------||--0h--3h--6--0h--6h--9-------------------------|


       PM PM    PM PM    PM       PM    PM                              
                                            |----3----|   |----3----|   
    E  E  E  E  E  E  E  E     E  E  E  E   E    E    E   E    E    E   
||---------------------------|------------------------------------------|
||---------------------------|------------------------------------------|
||*--------------------------|------------------------------------------|
||*--7--------5--------------|--------------11h--12h--14----------------|
||------0--0-----0--0--5--0--|--8--0--7--0----------------10h--12h--13--|
||---------------------------|------------------------------------------|

			     
			    				
      PM PM     PM PM    PM       PM    PM    PM    PM    
   E  E  E   E  E  E  E  E     E  E  E  E  E  E  E  E    
----------------------------|---------------------------||
----------------------------|---------------------------||
----------------------------|--------------------------*||
----------------------------|--------------------------*||
--12--0--0--10--0--0--8--0--|--7--0--5--0--4--0--1--0---||
----------------------------|---------------------------||





			*Pre Solo*




                                         
   W                   W                 
|-------------------|-------------------|
|-------------------|-------------------|
|-------------------|-------------------|
|--2----------------|--L----------------|
|--0----------------|--L----------------|
|-------------------|-------------------|


                      \1/                       
  W                   W                  
-------------------|-------------------||
-------------------|-------------------||
-------------------|-------------------||
--L----------------|--L----------------||
--L----------------|--L----------------||
-------------------|-------------------||





			*Solo*





         PM    PM    PM     
   E  E  E  E  E  E  E  E   
|--------------------------|
|--------------------------|
|--------------------------|
|--------------------------|
|--5--7-----7-----5-----8--|
|--------0-----0-----0-----|


  PM    PM                         PM PM         PM     
  E  E  E  E  E  E  E  E     E  E  E  E   E   E  E  E   
--------------------------|----------------------------|
--------------------------|----------------------------|
--------------------------|----------------------------|
--------------------------|----------------------------|
-----7-----5--7--8--7--5--|--7--8--------11--12--------|
--0-----0-----------------|--------0--0----------0--0--|


     PM                   T  T     T   T  T   T   T  T   T   T  T   T  T   T   
                 |-3-|             |---3--|   |---3--|   |---3--|   |---3--|   
  E  E  Q     E  S S S E  S  S     E   E  E   E   E  E   E   E  E   E  E   E   
-------------------------------|----------------------------------------------|
-------------------------------|----------------------------------------------|
-------------------------------|----------------------------------------------|
--9-----9b----L--7-9-7-6-------|---------------------------------------9--12--|
-----7--------------------7-11-|--14--11--7--15--11--7--14--11--7--11---------|
-------------------------------|----------------------------------------------|


  T  T  T   T  T   T  T T   T   T  T   T   T   
        |---3--|   |----3---|      |---3---|   
  S  S  E   E  E   S  S E   E   E  E   E   E   
----------------------------------------------|
----------------------------------------------|
----------------------------------------------|
--9-14-18--14--9--19-14-9--18--14--9--14--18--|
----------------------------------------------|
----------------------------------------------|


   T  T  T  T  T   T   T   T   T   T   T   T   T  T  T  T  
   |--3--|  |--|   |---3---|   |---3---|   |-3-|  |--3--|  
   S  S  S  S  E   E   E   E   E   E   E   E   S  S  S  S  
----------------------------------------------------------|
----------------------------------------------------13-17-|
--13-16-21-16-13--21--16--13--22--16--13--13--16-21-------|
----------------------------------------------------------|
----------------------------------------------------------|
----------------------------------------------------------|


   T  T  T   T   T   T   T   T                                       
   |----3----|   |---3---|                                           
   S  S  E   E   E   E   E   H            Q     Q.       E   E   E   
---------------------------------------|-------17b------17--16--17--|
--21-18-21--18--21--18--15-------------|----------------------------|
---------------------------------------|----------------------------|
----------------------------14~--------|----------------------------|
---------------------------------------|----------------------------|
---------------------------------------|----------------------------|


   W                                       W              
   H.            E   E     E   E   E   E   Q.         E   
--19b------------L------|---------17--20--19-------------|
------------------------|-----18-------------------------|
--------------------16--|--L----------------------13g14--|
------------------------|--------------------------------|
------------------------|--------------------------------|
------------------------|--------------------------------|


                  W                                                
  E   E   E   E   Q.      E      S  S  E   E   E   E   E   E   E   
---------13--17--16------16--|--16-15-13------13------------------|
-----15----------------------|------------15------12--15------12--|
--L--------------------------|----------------------------14------|
-----------------------------|------------------------------------|
-----------------------------|------------------------------------|
-----------------------------|------------------------------------|


   E   E   E   E   E   E   E   E      Q.       E   Q       E   E     
----------------------------------|---------------------------------|
----------------------------------|---------------------------------|
--13--14------13------------------|--13b------14--14b~----14--14b~--|
----------15------14--15--14--12--|---------------------------------|
----------------------------------|---------------------------------|
----------------------------------|---------------------------------|


                      W                                      
  E   E   Q       E   Q.           H           S  S  S  S    
-------------------------------||----------------------------|
-------------------------------||-----------------------17b~-|
--L--14--14b~----14--14b~------||--16b~--------18-16---------|
-------------------------------||--------------------18------|
-------------------------------||----------------------------|
-------------------------------||----------------------------|

   

Tempo = 115
                              
    H           S  S  S  S    
|----------------------------|
|-----------------------17b~-|
|--16b~--------18-16---------|
|--------------------18------|
|----------------------------|
|----------------------------|


                           |---3---|                  
  S  S  S  S  S   S  E     S   S   S  S  S  S  E   S  
-----------------------------------------------------|
--L--------------------------------------------------|
----18-16-18-15h-16-15b~--12h-13p-12-----------------|
-------------------------------------16-15-14-16--14-|
-----------------------------------------------------|
-----------------------------------------------------|


                                  PM  PM PM PM PM PM PM PM    \1/        
  E   S S  S  S  S  S  S  S E     S   S  S  S  S  S  S  S  S  S  Q.      
-------------------------------|----------------------------------------|
-------------------------------|--------------------------12------------|
--------9----------------------|--9-----11----12----13-------13~-L------|
--L--11----x-11--x-11--x-11-L--|-----11----11----11----11---------------|
-------------------------------|----------------------------------------|
-------------------------------|----------------------------------------|


                                                           |--3--|        
  E   E   E.   S Q         S  S S  S S  S S  S S  S  S  S  S  S  S  S  S  
-----16b--L---16-Lb----|-------------------------------------------------|
-----------------------|--17-19--------17---19---14-16-14-17-16-14-------|
--L--------------------|----------17-------------------------------16-18-|
-----------------------|-------------------------------------------------|
-----------------------|-------------------------------------------------|
-----------------------|-------------------------------------------------|


             W  W              W      
   E    S    S  E    E    S    S  E   
-------------------------------------|
-------------------------------------|
--16b--16pb---------16b--16pb--------|
------------17~-L~------------16~-L--|
-------------------------------------|
-------------------------------------|


        |--3--|  |--3--|  |--3--|  |--3--|  |--3--|  |--3--|      
   E    S  S  S  S  S  S  S  S  S  S  S  S  S  S  S  S  S  S  E   
-------------------------------------------------16-21-16-19b-L--||
-------------------------------------------17-19-----------------||
--16b--16-18-16----------------------16-18-----------------------||
----------------18-16----------16-18-----------------------------||
----------------------19-16-19-----------------------------------||
-----------------------------------------------------------------||






			*After Solo*






      E.   S H            E.   S E  S S S S S S     E.   S H         
| |-------------------|-------------------------|-------------------|
|3|--10---10----------|--10---10-L--------------|--10---10----------|
| |---8----8----------|---8----8-L--------------|---8----8----------|
| |---7----7----------|---7----7-L--------------|---7----7----------|
|4|-------------------|-------------6-4-7-6-4---|-------------------|
| |-------------------|-----------------------5-|-------------------|


   E.   S E  S S S S S S      S S S S S S S S S S    S S  S  S  S S  S  S  S S  
-------------------------| |----------------------|-----------------11-12-11-9-|
--10---10-L--------------|5|----------------------|------10-11-10-8------------|
---8----8-L--------------| |------------------8-9-|--8-6-----------------------|
---7----7-L--------------| |----------7-8-7-5-----|----------------------------|
-------------6-4-7-6-4---|8|--6-7-6-4-------------|----------------------------|
-----------------------5-| |----------------------|----------------------------|


                                                   W    
   S  S  S  S  S  S  S S  S  S     S S S S S S E   E    
--17-12----15-11----12-9----11-|-------9-5-------------|
--------14-------12------10----|--10-8-----5-----------|
-------------------------------|-------------6-8b--8~--|
-------------------------------|-----------------------|
-------------------------------|-----------------------|
-------------------------------|-----------------------|


   T  T T  T  T  T  T T  T  T  T  T T  T T  
   T  T S  T  T  T  T S  T  T  T  T S  S S  
-------------------------------------------|
-------------------------------------------|
--15-10-6-15-10-15-10-6-17-10-17-10-6-18-6-|
-------------------------------------------|
-------------------------------------------|
-------------------------------------------|


   T  T T  T  T  T  T T  T  T  T  T T  T                                      
   T  T S  T  T  T  T S  T  T  T  T S  S S    E.  E.  E  E     E.  E.  E  E   
-------------------------------------------|----------------|----------------| |
-------------------------------------------|----------------|----------------|4|
--17-10-6-18-10-18-10-6-20-10-20-10-6-22---|----------------|----------1--4--| |
-------------------------------------------|----------------|--3---5---------| |
-------------------------------------------|--2---3---5--6--|----------------|4|
-------------------------------------------|----------------|----------------| |


      E  E  E  E  E  E  E  E       E  E  E  E  E  E     E  E  E  E  E  E   
| |---------------------------| |--------------------|--------------------|
|4|---2--2--2--2--2--2--2--2--|3|--2--2--2--2--2--2--|--2--2--2--2--2--2--|
| |*--5--5--5--5--5--5--5--5--| |--5--5--5--5--5--5--|--5--5--5--5--5--5--|
| |*--------------------------| |--------------------|--------------------|
|4|---------------------------|4|--------------------|--------------------|
| |---------------------------| |--------------------|--------------------|


  E  E  E  E  E  E     E  E  E  E  E  E     E  E  E  E  E  E     
--------------------|--------------------|---------------------|| ||
--2--2--2--2--2--2--|--2--2--2--2--2--2--|--2--2--2--2--2--2---||4||
--5--5--5--5--5--5--|--5--5--5--5--5--5--|--5--5--5--5--5--5--*|| ||
--------------------|--------------------|--------------------*|| ||
--------------------|--------------------|---------------------||4||
--------------------|--------------------|---------------------|| ||




          PM PM PM PM      PM PM PM PM             
                                       |-3-|       
     S  S S  S  S  S  S  S S  S  S  S  S S S S  S  
||-------------------------------------3-4-3------|
||---2h-4-4--4--4--4--2h-4-4--4--4--4--------5p-4-|
||*-----------------------------------------------|
||*-----------------------------------------------|
||------------------------------------------------|
||------------------------------------------------|


       PM PM PM PM                          
                   |--3--|                  
  S  S S  S  S  S  S  S  S S S S S S S S S  
-------------------------------------------|
--2h-4-4--4--4--4--2h-4p-2---2-------------|
---------------------------4---4-3-1-0-1-3-|
-------------------------------------------|
-------------------------------------------|
-------------------------------------------|


       PM PM PM PM      PM PM PM PM             
                                    |-3-|       
  S  S S  S  S  S  S  S S  S  S  S  S S S S  S  
------------------------------------3-4-3------|
--2h-4-4--4--4--4--2h-4-4--4--4--4--------5p-4-|
-----------------------------------------------|
-----------------------------------------------|
-----------------------------------------------|
-----------------------------------------------|

 _________________________________________
|1.					  |
|      PM PM PM PM                        |  
|                  |--3--|                |  
| S  S S  S  S  S  S  S  S S S S S Q      |  
------------------------------------------||
--2h-4-4--4--4--4--2h-4p-2---2-----2~-----||
---------------------------4---4-3-------*||
-----------------------------------------*||
------------------------------------------||
------------------------------------------||

 ________________________________________
|2.					 |
| PM PM PM PM    PM PM PM PM    PM       | 
| S  S  S  S  E  S  S  S  S  E  S  S S S | 
-----------------------------------------|
-----------------------------------------|
-----------------------------------------|
-----------------------------------------|
--0--0--0--0-----0--0--0--0-----0--0-0-0-|
-----------------------------------------|


  PM PM PM PM    PM PM PM PM PM PM \1/                                     
  S  S  S  S  E  S  S  S  S  S  S  Q      
----------------------------------------||
----------------------------------------||
----------------------------------------||
----------------------------------------||
--0--0--0--0-----0--0--0--0--0--0--6----||
-----------------------------------6----||





			*Bridge*




                                
    E  S S S S S S S S S S S S S S  
||---------------------------------|
||---------------------------------|
||---------------------------------|
||---------------------------------|
||--7------------------------------|
||--5--4-4---4-4-4---4-4-4-4-4-4-4-|


                          
  E  S S S S S E  E.       
----------------------||
----------------------||
----------------------||
----------------------||
--7-------------------||
--5--4-4---4-4--------||






			*Pre Vers*





         PM PM   PM PM PM   PM PM PM PM PM PM PM  
    S  S S  S  S S  S  S  S S  S  S  S  S  S  S   
|------------------------------------------------|
|------------------------------------------------|
|*-----------------------------------------------|
|*-----------------------------------------------|
|------------------------------------------------|
|---1p-0-0--0----0--0--0----0--0--0--0--0--0--0--|


       PM PM   PM PM PM   PM PM PM            
  S  S S  S  S S  S  S  S S  S  S  S  S S  S  
---------------------------------------------|
---------------------------------------------|
---------------------------------------------|
---------------------------------------------|
----------------------------------------2h-5-|
--1p-0-0--0----0--0--0----0--0--0--4p-0------|


       PM PM   PM PM PM   PM PM PM PM PM PM PM  
  S  S S  S  S S  S  S  S S  S  S  S  S  S  S   
-----------------------------------------------|
-----------------------------------------------|
-----------------------------------------------|
-----------------------------------------------|
-----------------------------------------------|
--1p-0-0--0----0--0--0----0--0--0--0--0--0--0--|




 _____________________________________________
|1.					      |
|      PM PM   PM PM PM   PM PM PM            |  
| S  S S  S  S S  S  S  S S  S  S  S  S S  S  | 
----------------------------------------------||
----------------------------------------------||
---------------------------------------------*||
---------------------------------------------*||
----------------------------------------2h-5--||
--1p-0-0--0----0--0--0----0--0--0--4p-0-------||



 ___________________________________________________________________
|2.								    |
| |--3--|  |--3--| |--3--|  |--3--| |---3--|   |---3--| |--3--|     | 
| S  S  S  S  S  S S  S  S  S  S  S S   S  S   S  S   S S  S  S  E  | 
--------------------------------------------------------------------||
--------------------------------------------------------------------||
--------------------------------------------------------------------||
--------------------------------------------------------------------||
--------------------------------------------------------------------||
--0h-4p-0h-4p-0h-4-4h-7p-4h-7p-4h-7-7h-10p-7h-10p-7h-10-4h-7p-4p-1--||






				*Vers 3*





          PM PM   PM PM PM   PM PM PM PM PM PM PM  
    S  S S  S  S S  S  S  S S  S  S  S  S  S  S   
|------------------------------------------------|
|------------------------------------------------|
|*-----------------------------------------------|
|*-----------------------------------------------|
|------------------------------------------------|
|---1p-0-0--0----0--0--0----0--0--0--0--0--0--0--|


       PM PM   PM PM PM   PM PM PM            
  S  S S  S  S S  S  S  S S  S  S  S  S S  S  
---------------------------------------------|
---------------------------------------------|
---------------------------------------------|
---------------------------------------------|
----------------------------------------2h-5-|
--1p-0-0--0----0--0--0----0--0--0--4p-0------|


       PM PM   PM PM PM   PM PM PM PM PM PM PM  
  S  S S  S  S S  S  S  S S  S  S  S  S  S  S   
-----------------------------------------------|
-----------------------------------------------|
-----------------------------------------------|
-----------------------------------------------|
-----------------------------------------------|
--1p-0-0--0----0--0--0----0--0--0--0--0--0--0--|


 _____________________________________________
|1.					      |
|      PM PM   PM PM PM   PM PM PM            |  
| S  S S  S  S S  S  S  S S  S  S  S  S S  S  | 
----------------------------------------------||
----------------------------------------------||
---------------------------------------------*||
---------------------------------------------*||
----------------------------------------2h-5--||
--1p-0-0--0----0--0--0----0--0--0--4p-0-------||

 ______________________________________
|				       |
|      PM PM   PM PM PM                | 
| S  S S  S  S S  S  S  S S S S S S E  | 
---------------------------------------|
---------------------------------------|
---------------------------------------|
------------------------4-5-4----------|
------------------------2-3-2-4-6-7-6--|
--1p-0-0--0----0--0--0--------2-4-5-4--|


         PM PM   PM PM PM   PM PM PM PM PM PM PM  
    S  S S  S  S S  S  S  S S  S  S  S  S  S  S   
|------------------------------------------------|
|------------------------------------------------|
|*-----------------------------------------------|
|*-----------------------------------------------|
|------------------------------------------------|
|---1p-0-0--0----0--0--0----0--0--0--0--0--0--0--|


       PM PM   PM PM PM   PM PM PM            
  S  S S  S  S S  S  S  S S  S  S  S  S S  S  
---------------------------------------------|
---------------------------------------------|
---------------------------------------------|
---------------------------------------------|
----------------------------------------2h-5-|
--1p-0-0--0----0--0--0----0--0--0--4p-0------|


       PM PM   PM PM PM   PM PM PM PM PM PM PM  
  S  S S  S  S S  S  S  S S  S  S  S  S  S  S   
-----------------------------------------------|
-----------------------------------------------|
-----------------------------------------------|
-----------------------------------------------|
-----------------------------------------------|
--1p-0-0--0----0--0--0----0--0--0--0--0--0--0--|


 _____________________________________________
|1.					      |
|      PM PM   PM PM PM   PM PM PM            |  
| S  S S  S  S S  S  S  S S  S  S  S  S S  S  | 
----------------------------------------------||
----------------------------------------------||
---------------------------------------------*||
---------------------------------------------*||
----------------------------------------2h-5--||
--1p-0-0--0----0--0--0----0--0--0--4p-0-------||

 ____________________________________
|2.				     |
|      PM PM   PM PM PM              | 
| S  S S  S  S S  S  S  S S S S Q    | 
-------------------------------------||
-------------------------------------||
-------------------------------------||
------------------------7-7-7-7-7----||
------------------------5-5-5-5-5----||
--1p-0-0--0----0--0--0---------------||






			*Chorus*




                    PM PM  
     E.  E.  E  S S S  S   
| |-----------------------| |
|3|-----------------------|4|
| |-----------------------| |
| |------3---5------------| |
|4|--5---1---3--3-5-------|4|
| |--3----------1-3-3--3--| |

 
                    PMPM    pmpm                    PM PM                     PM PM     
     E.  E.  E  S S S S s s s s      E.  E.  E  S S S  S       E.  E.  E  S S S  S  s s  
| |-----------------------------| |-----------------------| |---------------------------| |
|4|-----------------------------|4|-----------------------|7|---------------------------|3|
| |-----------------------------| |-----------------------| |---------------------------| |
| |------3---5------------------| |------3---5------------| |------3---5----------------| |
|4|--5---1---3--6-5-----6-5-----|4|--5---1---3--3-5-------|8|--5---1---3--3-5-------6-5-|4|
| |--3----------4-3-3-3-4-3-3-3-| |--3----------1-3-3--3--| |--3----------1-3-3--3--4-3-| |


                    PM PM                     PM PM                          PM PM  
     E.  E.  E  S S S  S       E.  E.  E  S S S  S  s s       E.  E.  E  S S S  S s s
| |-----------------------| |----------------------------| |--------------------------| |
|3|-----------------------|4|----------------------------|3|--------------------------|4|
| |-----------------------| |----------------------------| |--------------------------| |
| |------3---5------------| |------3---5-----------------| |------3---5---------------| |
|4|--5---1---3--3-5-------|4|--5---1---3--6-5-------6-5--|4|--5---1---3--3-5------6-5-|4|
| |--3----------1-3-3--3--| |--3----------4-3-3--3--4-3--| |--3----------1-3-3--3-4-3-| |
-

                                                
  E.  E.  E  Q    Q       H        H           
-----------------------|--------------------||
-----------------------|--------------------||
-----------------------|--------------------||
------3---5------------|-----------8--------||
--5---1---3--6----5----|--4-----------------||
--3--------------------|--------------------||




			*After Chorus -> Ending*




Tempo = 230


        PM PM    PM PM    PM  
     E  E  E  E  E  E  E  E   
||---------------------------|
||---------------------------|
||*--------------------------|
||*--7--------5--------------|
||------0--0-----0--0--5--0--|
||---------------------------|


     PM    PM                                    PM PM     PM PM    PM  
               |----3----|   |----3----|                                
  E  E  E  E   E    E    E   E    E    E      E  E  E   E  E  E  E  E   
------------------------------------------|----------------------------|
------------------------------------------|----------------------------|
------------------------------------------|----------------------------|
--------------11h--12h--14----------------|----------------------------|
--8--0--7--0----------------10h--12h--13--|--12--0--0--10--0--0--8--0--|
------------------------------------------|----------------------------|


 __________________________  _______________________________________________
|1.			   ||2.						    |
|    PM    PM    PM    PM  ||                                               |   
|                          ||  |---3---|  |---3---|  |---3---|  |----3---|  | 
| E  E  E  E  E  E  E  E   ||  E   E   E  E   E   E  E   E   E  E   E    E  |
---------------------------||-----------------------------------------------|
---------------------------||-----------------------------------------------|
--------------------------*||-----------------------------------------------|
--------------------------*||-----------------------------------------------|
--7--0--5--0--4--0--1--0---||------------------------0h--4h--7--0h--7h--10--|
---------------------------||--0h--3h--6--0h--6h--9-------------------------|


       PM PM    PM PM    PM       PM    PM                              
                                            |----3----|   |----3----|   
    E  E  E  E  E  E  E  E     E  E  E  E   E    E    E   E    E    E   
||---------------------------|------------------------------------------|
||---------------------------|------------------------------------------|
||*--------------------------|------------------------------------------|
||*--7--------5--------------|--------------11h--12h--14----------------|
||------0--0-----0--0--5--0--|--8--0--7--0----------------10h--12h--13--|
||---------------------------|------------------------------------------|

			     
			    				
      PM PM     PM PM    PM       PM    PM    PM    PM    
   E  E  E   E  E  E  E  E     E  E  E  E  E  E  E  E    
----------------------------|---------------------------||
----------------------------|---------------------------||
----------------------------|--------------------------*||
----------------------------|--------------------------*||
--12--0--0--10--0--0--8--0--|--7--0--5--0--4--0--1--0---||
----------------------------|---------------------------||





			*Ending*





                                                     PM PM    PM PM    PM  
  Q.     Q.      Q       Q.     Q.      Q         E  E  E  E  E  E  E  E   
----------------------|----------------------||---------------------------|
----------------------|----------------------||---------------------------|
----------------------|----------------------||*--------------------------|
----------------------|----------------------||*--------------------------|
--7--------------8----|--7--------------8----||---7--------5--------------|
--5------3~------6----|--5------3~------6----||------0--0-----0--0--5--0--|


     PM    PM                                     PM PM     PM PM    PM  
               |----3----|    |----3----|                                
  E  E  E  E   E    E    E    E    E    E      E  E  E   E  E  E  E  E   
-------------------------------------------|----------------------------|
-------------------------------------------|----------------------------|
-------------------------------------------|----------------------------|
-------------------------------------------|----------------------------|
--------------11h--12h--14h----------------|----------------------------|
--8--0--7--0-----------------10h--12h--13--|--12--0--0--10--0--0--8--0--|


     PM    PM    PM    PM       PM PM PM PM PM                           
                                                  |---3---|  |---3---|   
  E  E  E  E  E  E  E  E        E  E  E  E  E  E  E   E   E  E   E   E   
---------------------------| |------------------------------------------|
---------------------------|5|------------------------------------------|
--------------------------*| |------------------------------------------|
--------------------------*| |------------------------------------------|
---------------------------|4|--7--------5-------------------5h--7h--8--|
--7--0--5--0--4--0--1--0---| |-----0--0-----0-----4h--5h--7-------------|


  PM PM PM PM PM                           
                    |---3---|  |---3---|   
  E  E  E  E  E  E  E   E   E  E   E   E   
------------------------------------------|
------------------------------------------|
------------------------------------------|
--------------------6h--7h--9-------------|
--7--------5-------------------5h--7h--8--|
-----0--0-----0---------------------------|


  PM PM PM PM PM                             PM PM PM PM PM PM PM PM PM PM  
                    |---3---|  |---3---|                                    
  E  E  E  E  E  E  E   E   E  E   E   E     E  E  E  E  E  E  E  E  E  E   
------------------------------------------|--------------------------------| |
------------------------------------------|--------------------------------|4|
------------------------------------------|--------------------------------| |
------------------------------------------|--------------------------------| |
--7--------5-------------------5h--7h--8--|--7--------5--------------------|4|
-----0--0-----0-----4h--5h--7-------------|-----0--0-----0--0--8--0--0--7--| |


     PM PM PM PM PM PM PM PM                                          
     E  E  E  E  E  E  E  E     W                   W                 
| |--------------------------|-------------------|-------------------|
|4|--------------------------|-------------------|-------------------|
| |--------------------------|-------------------|-------------------|
| |--------------------------|-------------------|-------------------|
|4|--------------------------|--3----------------|--L----------------|
| |--0--0--5--0--0--4--0--0--|--1----------------|--L----------------|


  E  E  E  E  E  E  E  E     E  E  E  E  E  E  E  E    
--------------------------|--------------------------||
--------------------------|--------------------------||
--------------------------|--------------------------||
--------------------------|-----------------------9--||
--3-----------------------|-----------------------7--||
--1--0--0--0-----0--0--0--|-----0--0--0--0--0--0--0--||




Duration Legend
---------------
W - whole
H - half
Q - quarter
E - 8th
S - 16th
T - 32nd
X - 64th
. - note dotted
|-n-|  - n-tuplets


Tablature Legend
----------------
L - tied note
x - dead note
g - grace note
(n) - ghost note
> - accentuded note
NH - natural harmonic
AH - artificial harmonic
TH - tapped harmonic
SH - semi harmonic
PH - pitch harmonic
h - hammer on
p - pull off
b - bend
br - bendRelease
pb - preBend
pbr - preBendRelease
brb - bendReleaseBend
\n/ - tremolo bar dip
\n - tremolo bar dive
-/n - tremolo bar Release up
/n\ - tremolo bar inverted dip
/n - tremolo bar return
-\n - tremolo bar Release down
S - shift slide
s - legato slide
/ -  slide into from below or out of upwards
\ -  slide into from above or out of downwards
~ - vibrato
W - wide vibrato
tr - trill
TP - tremolo picking
T - tapping
S - slap
P - pop
< - fade in
^ - brush up
v - brush down
comments
print report bad tab
5 comments total. Showing first comments.
0 reply
ibanezfreak301 wrote on April 7 2008, 08:04 pm

dude greatest tab 4 tion ive seen so far... ive seen symphony x live and this whole tab totally goes with the way they play the song. great job!

0 reply
.mem-brane. wrote on June 26 2008, 08:47 am

brilliant tab. how long did this take you? well done anyway.

0 reply
awsomeguitarguy wrote on July 2 2008, 11:46 pm

thats good, but you dont have to get all crazy with the details and symbols, its like youre obsessed and it took you 10 hours or something

I want to post or [tab]
guest
You may want to rate the tab now too:
select rating
Please do not post tabs as comments. Select "correction" instead!