Oops, an error
Loading. Please wait.

Dressed To Kill Bass Tab

ver1
ver1

Whole song

Interactive

More versions @911Tabs.com
363 views 1 this week
no commentswrite comment
1 2 3 4 5
please rate
Autoscroll
+/-
esc
set tempo
stop
WARNING: You are trying to view
                                    content from Ultimate-Guitar.com
                                    in an unauthorized application,
                                    which is prohibited.

                                    Please use an official Ultimate
                                    Guitar Tabs application for iPhone,
                                    iPad or Android to access legitimate
                                    chords, guitar, bass, and drum tabs
                                    from Ultimate-Guitar.com database.

                                    Type "ultimate guitar tabs" in Apple
                                    App Store's or Android Market's
                                    search to find the application.
  "Dressed To Kill"
  From the album The Damnation Game by Symphony X  

  TAB by: Linus Abrahamson
  E-mail: mentalsjuk@yahoo.com

  5-string bass tuned down one whole step:
  E-D, A-G, D-C, G-F and B-A    Intro
 F|---------------------------------|---------------------------------|
 C|---------------------------------|---------------------------------|
 G|---------------------------------|-1-1-1---------------------------|
 D|---------------------------------|-------0-------------------------|
 A|---------------------------------|---------------------------------|


 F|---------------------------------|---------------------------------|
 C|---------------------------------|---------------------------------|
 G|---------------------------------|-------1-----------------1-------|
 D|---------------------------------|-0-0-0---------------------------|
 A|---------------------------------|---------------------------------|


 F|---------------------------------|---------------------------------|
 C|---------------------------------|---------------------------------|
 G|---------------------------------|-1-1-1---------------------------|
 D|-0-------------------------------|-------0-------------------------|
 A|---------------------------------|---------------------------------|


 F|---------------------------------|-------------------------5-8-7-8-|
 C|---------------------------------|-----------------4-7-5-7---------|
 G|---------------------------------|---------3-6-5-6-----------------|
 D|(0)------------------------------|-2-5-3-5-------------------------|
 A|---------------------------------|---------------------------------|    Main Riff
 F|---------------------------------|---------------------------------|
 C|---------------------------------|---------------------------------|
 G|---------5h7---------8p7-----5h7-|---------------------------------|
 D|-0-0-0-0-----0-0-0-0-----0-0-----|-0---0-0-0---6-------0-------6---|
 A|---------------------------------|---------------------------------|


 F|---------------------------------|---------------------------------|
 C|---------------------------------|---------------------------------|
 G|---------5h7---------8p7-----5h7-|---------------------------------|
 D|-0-0-0-0-----0-0-0-0-----0-0-----|-8-----------7-----------6-------|   
 A|---------------------------------|---------------------------------|


 F|---------------------------------|---------------------------------|
 C|---------------------------------|---------------------------------|
 G|---------5h7---------8p7-----5h7-|---------------------------------|
 D|-0-0-0-0-----0-0-0-0-----0-0-----|-0---0-0-0---6-------0-------6---|
 A|---------------------------------|---------------------------------|

 F|---------------------------------|---------------------------------|
 C|---------------------------------|---------------------------------|
 G|---------5h7---------8p7-----5h7-|---------------------------------|
 D|-0-0-0-0-----0-0-0-0-----0-0-----|-0-0-0-0-0-0-0-0-0-0-0-0-0-0-0-0-|
 A|---------------------------------|---------------------------------|    Pre-Verse 1
 F|---------------------------------|---------------------------------|
 C|---------------------------------|---------------------------------|
 G|-------------1-------------------|---------------------------------|
 D|-3-----------------------2-------|-----1---1---4---4---3---3---2---|
 A|---------------------------------|---------------------------------|

 F|---------------------------------|---------------------------------|
 C|---------------------------------|---------------------------------|
 G|-------------1-------------------|-------------------------5-------|
 D|-3-----------------------2-------|-----1---1---4---4---3-----------|
 A|---------------------------------|---------------------------------|


 F|---------------------------------|---------------------------------|
 C|---------------------------------|---------------------------------|
 G|-------------1-------------------|---------------------------------|
 D|-3-----------------------2-------|-----1---1---4---4---3---3---2---|
 A|---------------------------------|---------------------------------|

 F|---------------------------------|-------------------------|-------------------------|
 C|---------------------------------|*------------------------|-------------------------|
 G|-------------1-------------------|*------------------------|-------------------------|
 D|-3-----------------------2-------|-1---0---1---4---3---0---|-1---0---1---4---3---0---|
 A|---------------------------------|-------------------------|-------------------------|


 F|-------------------------|-------------------------|-------------------------|-------------------------|
 C|-------------------------|-------------------------|-------------------------|------------------------*|
 G|-------------------------|-------------------------|-------------------------|------------------------*|
 D|-1---0---1---4---3---0---|-1---0---1---4---3---0---|-1---0---1---4---3---0---|-1---0---1---4---3---0---|  
 A|-------------------------|-------------------------|-------------------------|-------------------------|

 F|-------------------------|-------------------------|-------------------------|-------------------------|
 C|-------------------------|-------------------------|-------------------------|-------------------------|
 G|-------------------------|-------------------------|-------------------------|-------------------------|
 D|-1-1-0-0-1-1-4-4-3-3-0-0-|-1-1-0-0-1-1-4-4-3-3-0-0-|-1-1-0-0-1-1-4-4-3-3-0-0-|-1-1-0-0-1-1-4-4-3-3-0-0-|
 A|-------------------------|-------------------------|-------------------------|-------------------------|    Verse 1
 F|---------------------------------|---------------------------------|
 C|*--------------------------------|---------------------------------|
 G|*----5---5-------5-----------5---|-----3---5-----------------------|
 D|---------------------------------|---------------------------------|
 A|-3-----------3-------3---3-------|-3-----------3---3---3---3---3---|


 F|---------------------------------|---------------------------------|
 C|---------------------------------|--------------------------------*| Play
 G|-----5---5-------5-----------5---|-----3---5-------------------5--*|  3x
 D|---------------------------------|---------------------------------|
 A|-3-----------3-------3---3-------|-3-----------3---3---3---3-------|


 F|---------------------------------|---------------------------------|
 C|---------------------------------|---------------------------------|
 G|-----5---5-------5-----------5---|-----3---5-----------------------|
 D|---------------------------------|---------------------------------|
 A|-3-----------3-------3---3-------|-3-----------3---3---3---3---3---|


 F|---------------------------------|---------------------------------|
 C|---------------------------------|---------------------------------|
 G|---------------------------------|---------------------------------|
 D|-------------------------1-------|-----1-----------2-------2-------|
 A|-4-----------4-------------------|---------------------------------|    Chorus 1
 F|---------------------------------|---------------------------------|
 C|---------3h5---------6p5-----3h5-|---------------------------------|
 G|---------------------------------|-3-3-5-5-------------------------|
 D|-3-3-3-3-----3-3-3-3-----3-3-----|---------3-3-3-3-3-3-3-3-3-3-3-3-|
 A|---------------------------------|---------------------------------|


 F|---------------------------------|---------------------------------|
 C|---------3h5---------6p5-----3h5-|---------------------------------|
 G|---------------------------------|-6-----------5-----------4-------|
 D|-3-3-3-3-----3-3-3-3-----3-3-----|---------------------------------|
 A|---------------------------------|---------------------------------|


 F|---------------------------------|---------------------------------|
 C|---------3h5---------6p5-----3h5-|---------------------------------|
 G|---------------------------------|-3-3-5-5-------------------------|
 D|-3-3-3-3-----3-3-3-3-----3-3-----|---------3-3-3-3-3-3-3-3-3-3-3-3-|
 A|---------------------------------|---------------------------------|


 F|---------------------------------|---------------------------------|
 C|-5-5-5-5-5-5-5-5-3-3-3-3-3-3-3-3-|-2-2-2-2-2-2-2-2-1-1-1-1-1-1-1-1-|
 G|---------------------------------|---------------------------------|
 D|---------------------------------|---------------------------------|
 A|---------------------------------|---------------------------------|    Pre-Verse 2
 F|-------------------------|-------------------------|-------------------------|-------------------------|
 C|-------------------------|-------------------------|-------------------------|-------------------------|
 G|-------------------------|-------------------------|-------------------------|-------------------------|
 D|-1---0---1---4---3---0---|-1---0---1---4---3---0---|-1---0---1---4---3---0---|-1---0---1---4---3---0---|
 A|-------------------------|-------------------------|-------------------------|-------------------------|


 F|-------------------------|-------------------------|-------------------------|-------------------------|
 C|-------------3-3-2-2-----|-------------3-3-2-2-----|-------------3-3-2-2-----|-------------3-3-2-2-----|
 G|-5-5-4-4-5-5---------4-4-|-5-5-4-4-5-5---------4-4-|-5-5-4-4-5-5---------4-4-|-5-5-4-4-5-5---------4-4-|
 D|-------------------------|-------------------------|-------------------------|-------------------------|
 A|-------------------------|-------------------------|-------------------------|-------------------------|    Verse 1
 F|---------------------------------|---------------------------------|
 C|*--------------------------------|--------------------------------*| Play
 G|*--------------------------------|--------------------------------*|  6x
 D|-----7---7-------7---7-------7---|-----5---7-----------------------|
 A|-0-----------0-----------0-------|-0-----------0---0---0---0---0---|


 F|---------------------------------|---------------------------------|
 C|---------------------------------|---------------------------------|
 G|-2-------------------------------|(2)------------------------------|
 D|---------------------------------|---------------------------------|
 A|---------------------------------|---------------------------------|


 F|-------------------------|-------------------------|-------------------------|---------------------------------|
 C|-------------------------|-------------------------|-------------------------|---------------------------------|
 G|-3-----------------------|-5-----------------------|-------------------------|---------------------------------|
 D|-------------------------|-------------------------|-------------------------|-1---------------2-------2-------|
 A|-------------------------|-------------------------|-4-----------------------|---------------------------------|    Chorus 2
 F|---------------------------------|---------------------------------|
 C|---------3h5---------6p5-----3h5-|---------------------------------|
 G|---------------------------------|-3-3-5-5-------------------------|
 D|-3-3-3-3-----3-3-3-3-----3-3-----|---------3-3-3-3-3-3-3-3-3-3-3-3-|
 A|---------------------------------|---------------------------------|


 F|---------------------------------|---------------------------------|
 C|---------3h5---------6p5-----3h5-|---------------------------------|
 G|---------------------------------|-6-----------5-----------4-------|
 D|-3-3-3-3-----3-3-3-3-----3-3-----|---------------------------------|
 A|---------------------------------|---------------------------------|


 F|---------------------------------|---------------------------------|
 C|---------3h5---------6p5-----3h5-|---------------------------------|
 G|---------------------------------|-3-3-5-5-------------------------|
 D|-3-3-3-3-----3-3-3-3-----3-3-----|---------3-3-3-3-3-3-3-3-3-3-3-3-|
 A|---------------------------------|---------------------------------|


 F|---------------------------------|---------------------------------|
 C|-5-5-5-5-5-5-5-5-3-3-3-3-3-3-3-3-|---------------------------------|
 G|---------------------------------|-7-7-7-7-7-7-7-7-6-6-6-6-6-6-6-6-|
 D|---------------------------------|---------------------------------|
 A|---------------------------------|---------------------------------|


 F|---------------------------------|---------------------------------|
 C|---------6h8---------9p8-----6h8-|---------------------------------|
 G|---------------------------------|-6-6-8-8-------------------------|
 D|-6-6-6-6-----3-3-3-3-----3-3-----|---------6-6-6-6-6-6-6-6-6-6-6-6-|
 A|---------------------------------|---------------------------------|


 F|---------------------------------|---------------------------------|
 C|---------6h8---------9p8-----6h8-|---------------------------------|
 G|---------------------------------|-9-----------8-----------7-------|
 D|-6-6-6-6-----3-3-3-3-----3-3-----|---------------------------------|
 A|---------------------------------|---------------------------------|


 F|---------------------------------|---------------------------------|
 C|---------6h8---------9p8-----6h8-|---------------------------------|
 G|---------------------------------|-6-6-8-8-------------------------|
 D|-6-6-6-6-----3-3-3-3-----3-3-----|---------6-6-6-6-6-6-6-6-6-6-6-6-|
 A|---------------------------------|---------------------------------|


 F|---------------------------------|---------------------------------|
 C|-8-8-8-8-8-8-8-8-6-6-6-6-6-6-6-6-|-5-5-5-5-5-5-5-5-4-4-4-4-4-4-4-4-|
 G|---------------------------------|---------------------------------|
 D|---------------------------------|---------------------------------|
 A|---------------------------------|---------------------------------|
     Break
 F|-------------------------|-------------------------|-------------------------|-------------------------|
 C|-------------------------|-------------------------|-------------------------|-------------------------|
 G|-------------3---2-------|-------------3---2-------|-------------3---2-------|-------------3---2-------|
 D|-5---4---5-----------4---|-5---4---5-----------4---|-5---4---5-----------4---|-5---4---5-----------4---|
 A|-------------------------|-------------------------|-------------------------|-------------------------|


 F|-------------------------|-------------------------|-------------------------|
 C|-------------------------|-------------------------|-------------------------|
 G|-------------3---2-------|-------------3---2-------|-------------3---2-------|
 D|-5---4---5-----------4---|-5---4---5-----------4---|-5---4---5-----------4---|  
 A|-------------------------|-------------------------|-------------------------|


 F|-------------------------|-------------------------|-----------------------------------------|
 C|-------------------------|-------------------------|-----------------------------------------|
 G|-------------3---2-------|-------------3---2-------|-0-0-0-------0---0-0-0---0-----------0---|
 D|-5---4---5-----------4---|-5---4---5-----------4---|-----------------------------------------|
 A|-------------------------|-------------------------|-----------------------------------------|


 F|-----------------------------------------|-----------------------------------------|
 C|-----------------------------------------|-----------------------------------------|
 G|-0-----------0-----------0---0-------0---|-0-0-0-------0-------0---0-------0---0---|
 D|-----------------------------------------|-----------------------------------------|
 A|-----------------------------------------|-----------------------------------------|    Solo Rhythm
 F|---------------------------------|---------------------------------|
 C|---------------------------------|---------------------------------|
 G|---------------------------------|---------------------------------|
 D|-2---2---2---2---2---2---2---2---|-2---2---2---2---2---2---2---2---|
 A|---------------------------------|---------------------------------|


 F|---------------------------------|---------------------------------|
 C|-------------------------1---2---|-2---2---2---2---2---2---2---2---|
 G|-4---4---4---4---4---4-----------|---------------------------------|
 D|---------------------------------|---------------------------------|   A|---------------------------------|---------------------------------|


 F|---------------------------------|---------------------------------|
 C|---------------------------------|---------------------------------|
 G|-2---2---2---2---2---2---4---5---|-5---5---5---5---5---5---5---5---|
 D|---------------------------------|---------------------------------|
 A|---------------------------------|---------------------------------|


 F|---------------------------------|---------------------------------|
 C|-2---2---2---2---2---2---2---2---|---------------------------------|
 G|---------------------------------|-4---4---4---4---4---4---4---4---|
 D|---------------------------------|---------------------------------|
 A|---------------------------------|---------------------------------|


 F|---------------------------------|---------------------------------|
 C|---------------------------------|---------------------------------|
 G|---------------------------------|---------------------------------|
 D|-2---2---2---2---2---2---2---2---|-2---2---2---2---2---2---2---2---|
 A|---------------------------------|---------------------------------|


 F|---------------------------------|---------------------------------|---------------------------------|
 C|-------------------------1---2---|-2---2---2---2---2---2---2---2---|---------------------------------|
 G|-4---4---4---4---4---4-----------|---------------------------------|-2---2---2---2---2---2---4---5---|
 D|---------------------------------|---------------------------------|---------------------------------|
 A|---------------------------------|---------------------------------|---------------------------------|    Interlude
 F|---------------------------------|---------------------------------|
 C|*--------------------------------|--------------------------------*| Play
 G|*5-5-5-5-5-5-5-5-5-5-5-5-5-5-5-5-|-5-5-5-5-5-5-5-5-5-5-5-5-5-5-5-5*|  3x
 D|---------------------------------|---------------------------------|
 A|---------------------------------|---------------------------------|


 F|---------------------------------|---------------------------------|
 C|---------------------------------|---------------------------------|
 G|-3-3-3-3-3-3-3-3-3-3-3-3-3-3-3-3-|-3-3-3-3-3-3-3-3-3-3-3-3-3-3-3-3-|
 D|---------------------------------|---------------------------------|
 A|---------------------------------|---------------------------------|


 F|---------------------------------|---------------------------------|
 C|---------------------------------|---------------------------------|  
 G|-1-1-1-1-1-1-1-1-1-1-1-1-1-1-1-1-|-1-1-1-1-1-1-1-1-1-1-1-1-1-1-1-1-|   
 D|---------------------------------|---------------------------------|
 A|---------------------------------|---------------------------------|


 F|---------------------------------|---------------------------------|
 C|---------------------------------|---------------------------------|
 G|-0-0-0-0-0-0-0-0-0-0-0-0-0-0-0-0-|-5-5-5-5-5-5-5-5-5-5-5-5-5-5-5-5-|
 D|---------------------------------|---------------------------------|
 A|---------------------------------|---------------------------------|


 F|---------------------------------|---------------------------------|
 C|---------------------------------|---------------------------------|
 G|-6-6-6-6-6-6-6-6-6-6-6-6-6-6-6-6-|-5-5-5-5-5-5-5-5-5-5-5-5-5-5-5-5-|
 D|---------------------------------|---------------------------------|
 A|---------------------------------|---------------------------------|


 F|---------------------------------|---------------------------------|
 C|---------------------------------|---------------------------------|
 G|-5-5-5-5-5-5-5-5-5-5-5-5-5-5-5-5-|-5-------------------------------|
 D|---------------------------------|---------------------------------|  
 A|---------------------------------|---------------------------------|    Chorus 3
 F|---------------------------------|---------------------------------|
 C|---------3h5---------6p5-----3h5-|---------------------------------|
 G|---------------------------------|-3-3-5-5-------------------------|
 D|-3-3-3-3-----3-3-3-3-----3-3-----|---------3-3-3-3-3-3-3-3-3-3-3-3-|
 A|---------------------------------|---------------------------------|


 F|---------------------------------|---------------------------------|
 C|---------3h5---------6p5-----3h5-|---------------------------------|
 G|---------------------------------|-6-----------5-----------4-------|
 D|-3-3-3-3-----3-3-3-3-----3-3-----|---------------------------------|
 A|---------------------------------|---------------------------------|


 F|---------------------------------|---------------------------------|
 C|---------3h5---------6p5-----3h5-|---------------------------------|
 G|---------------------------------|-3-3-5-5-------------------------|
 D|-3-3-3-3-----3-3-3-3-----3-3-----|---------3-3-3-3-3-3-3-3-3-3-3-3-|
 A|---------------------------------|---------------------------------|


 F|---------------------------------|---------------------------------|
 C|-5-5-5-5-5-5-5-5-3-3-3-3-3-3-3-3-|---------------------------------|
 G|---------------------------------|-7-7-7-7-7-7-7-7-6-6-6-6-6-6-6-6-|
 D|---------------------------------|---------------------------------|
 A|---------------------------------|---------------------------------|


 F|---------------------------------|---------------------------------|
 C|---------6h8---------9p8-----6h8-|---------------------------------|
 G|---------------------------------|-6-6-8-8-------------------------|
 D|-6-6-6-6-----3-3-3-3-----3-3-----|---------6-6-6-6-6-6-6-6-6-6-6-6-|
 A|---------------------------------|---------------------------------|


 F|---------------------------------|---------------------------------|
 C|---------6h8---------9p8-----6h8-|---------------------------------|
 G|---------------------------------|-9-----------8-----------7-------|
 D|-6-6-6-6-----3-3-3-3-----3-3-----|---------------------------------|
 A|---------------------------------|---------------------------------|


 F|---------------------------------|---------------------------------|
 C|---------6h8---------9p8-----6h8-|---------------------------------|
 G|---------------------------------|-6-6-8-8-------------------------|
 D|-6-6-6-6-----3-3-3-3-----3-3-----|---------6-6-6-6-6-6-6-6-6-6-6-6-|
 A|---------------------------------|---------------------------------|


 F|---------------------------------|---------------------------------|
 C|-8-8-8-8-8-8-8-8-6-6-6-6-6-6-6-6-|-5-5-5-5-5-5-5-5-4-4-4-4-4-4-4-4-|
 G|---------------------------------|---------------------------------|
 D|---------------------------------|---------------------------------|
 A|---------------------------------|---------------------------------|    Outro
 F|-------------------------|-------------------------|-------------------------|-------------------------|
 C|*------------------------|-------------------------|-------------------------|------------------------*|
 G|*------------------------|-------------------------|-------------------------|------------------------*|
 D|-1---0---1---4---3---0---|-1---0---1---4---3---0---|-1---0---1---4---3---0---|-1---0---1---4---3---0---|
 A|-------------------------|-------------------------|-------------------------|-------------------------|


 F|-----------------------------------------|-----------------------------------------||
 C|-----------------------------------------|-----------------------------------------||
 G|-----------------------------------------|-----------------------------------------||
 D|-1-1-1-------1---1-1-1---1-----------1---|-1-----------1---------------------------||
 A|-----------------------------------------|-----------------------------------------||     That's it! / Linus Abrahamson
     Please, if you find any mistakes, don't hesitate to send an e-mail and tell me about it!
     E-mail: mentalsjuk@yahoo.com
comments
We did not receive enough feedback on this tab! Please rate:
print report bad tab
1 2 3 4 5
I want to post or [tab]
guest
You may want to rate the tab now too:
select rating
Please do not post tabs as comments. Select "correction" instead!