Oops, an error
Loading. Please wait.

Evolution Bass Tab

ver1
ver1

Whole song

Interactive

More versions @911Tabs.com
553 views 1 this week
no commentswrite comment
1 2 3 4 5
worth learning
x 1
add to favorites launch autoscroll
font size
0
reset
Autoscroll
+/-
esc
set tempo
stop
Contributor
WARNING: You are trying to view
                                    content from Ultimate-Guitar.com
                                    in an unauthorized application,
                                    which is prohibited.

                                    Please use an official Ultimate
                                    Guitar Tabs application for iPhone,
                                    iPad or Android to access legitimate
                                    chords, guitar, bass, and drum tabs
                                    from Ultimate-Guitar.com database.

                                    Type "ultimate guitar tabs" in Apple
                                    App Store's or Android Market's
                                    search to find the application.
Symphony X - Evolution

tune down

F||----------------------------|------------------|
C||----------------------------|------------------|
G||----------------------------|------------------|
D||--0-2-2-2-3-2-2-2-0-2-------|------------------|


----------------------------------|----------------------------------|
----------------------------------|------------0---------------------|
----------------------------1---1-|------2---4---4-0-3-4-3-0-2-3-2-0-|
--0-2-2-2-3-0-0-0-3-0-3-0-0---0---|--0-0---0-------------------------|


------------------------|------------------------|
------------------------|------------------------|
------------------------|------------------------|
--0-3-----------0-2-2-2-|--3-2-2-2-0-2-----------|


--------------0---------------|------0---0-----------------0-4---|
------2-4-------4-----2-4-----|--------4---4-----2-4-----4-------|
------------------------------|----------------------------------|
----------2-2-----2-2-----2-2-|--2-2---------2-2-----2-2-------2-|


--3--0-----------0---------------|------------0-4---3--------0-----|
-------2-2-4-------4-----2-4-----|------4-2-4----------4-2-4---4-2-|
---------------------------------|---------------------------------|
-------------2-2-----2-2-----2-2-|--2-2-----------2----------------|


--0-3-0-----------0---------------|------0---0-----------------0-4---|
--------2-2-4-------4-----2-4-----|--------4---4-----2-4-----4-------|
----------------------------------|----------------------------------|
--------------2-2-----2-2-----2-2-|--2-2---------2-2-----2-2-------2-|


--3--0-----------0---------------|------------0-4---3--------0-----|
-------2-2-4-------4-----2-4-----|------4-2-4----------4-2-4---4-2-|
---------------------------------|---------------------------------|
-------------2-2-----2-2-----2-2-|--2-2-----------2----------------|


--0-3-0-----------0---------------|------0---0-----------------0-4---|
--------2-2-4-------4-----2-4-----|--------4---4-----2-4-----4-------|
----------------------------------|----------------------------------|
--------------2-2-----2-2-----2-2-|--2-2---------2-2-----2-2-------2-|


--3--0-----------0---------------|------------0-4---3--------0-----|
-------2-2-4-------4-----2-4-----|------4-2-4----------4-2-4---4-2-|
---------------------------------|---------------------------------|
-------------2-2-----2-2-----2-2-|--2-2-----------2----------------|


--0-3-0---------0-----0-3-0---6-7-|--6---5-6-5---4-2-4-5-4-2---0-----|
--------2-4-2-4---4-2-------2-----|----7-------7-------------4---4-2-|
----------------------------------|----------------------------------|
----------------------------------|----------------------------------|


--0-3-0-----------0---------------|------0---0-----------------0-4---|
--------2-2-4-------4-----2-4-----|--------4---4-----2-4-----4-------|
----------------------------------|----------------------------------|
--------------2-2-----2-2-----2-2-|--2-2---------2-2-----2-2-------2-|


--3--0-----------0---------------|------------0-4---3--------0-----|
-------2-2-4-------4-----2-4-----|------4-2-4----------4-2-4---4-2-|
---------------------------------|---------------------------------|
-------------2-2-----2-2-----2-2-|--2-2-----------2----------------|


--0-3-0---------0-----0-3-0---6-7-|--6---5-6-5---4-2-4-5-4-2---0-----|
--------2-4-2-4---4-2-------2-----|----7-------7-------------4---4-2-|
----------------------------------|----------------------------------|
----------------------------------|----------------------------------|


--0-3-0---3--3-3-4-3-3-3-3--3--|----3-3-4-3-3-3-3--3----3-3-|
--------2----------------------|----------------------------|
-------------------------------|----------------------------|
-------------------------------|----------------------------|


--4----3--3-3-4-3-3-3-3--3--|----3-3-4-3-8-4-7-8-7-----------|
----------------------------|----------------------9-8-9-8-6-|
----------------------------|--------------------------------|
----------------------------|--------------------------------|


--4----3--3-3-4-3-3-3-3--3--|----3-3-4-3-3-3-3--3----3-3-|
----------------------------|----------------------------|
----------------------------|----------------------------|
----------------------------|----------------------------|


--4----3--3-3-4-3-3-3-3--3--|----3-3-4-3-8-4-7-8-7-----------|
----------------------------|----------------------9-8-9-8-6-|
----------------------------|--------------------------------|
----------------------------|--------------------------------|


--4----3--3-3-4-3-3-3-3--3--|----3-3-4-3-3-3-3--3----3-3-|
----------------------------|----------------------------|
----------------------------|----------------------------|
----------------------------|----------------------------|


--4----3--3-3-4-3-3-3-3--3--|----3-3-4-3-8-4-7-8-7-----------|
----------------------------|----------------------9-8-9-8-6-|
----------------------------|--------------------------------|
----------------------------|--------------------------------|


--4----3--3-3-4-3-3-3-3--3--|----3-3-4-3-3-3-3--3----3-3-|
----------------------------|----------------------------|
----------------------------|----------------------------|
----------------------------|----------------------------|


--4----3--3-3-4-3-3-3-3--3--|----3-3-4-3-8-4-7-8-7-----------|
----------------------------|----------------------9-8-9-8-6-|
----------------------------|--------------------------------|
----------------------------|--------------------------------|


--4-------------------------|-----------------------------|
----------------------------|-----------------------------|
-------6--6-6-6-6-7--6-6-7--|--6-7-6-4-6--6-6-7----6--6-6-|
----------------------------|-----------------------------|


-------------------------------|--------------------------|
-------------------------------|--------------------------|
--6-6-7--6-6-7--6-7-6-4-6--6-6-|--6----4------------------|
-------------------------------|------------2--2-2-2-2-3--|


-------------------------------|-----------------------------|
-------------------------------|-----------------------------|
-------------------------------|-----------------------------|
--2-2-3--2-3-2-0-2--2-2-2--2-2-|--3-2-0-2-3----2--2-2-2-2-3--|


-----------------6-4-3-0-4-3-0---|--3-0-----0----------------------|
-------------------------------4-|------4-2---4-2-4----------------|
---------------------------------|---------------------------------|
--2-2-3--2-3-2-0-----------------|------------------4--4-4-4-4-4-4-|


----------------------------------|---------------------------------|
----------------------------------|---------------------------------|
----------------------------------|---------------------------------|
--4-4-4-4-4-4-4-4-4-4-4-4-4-4-4-4-|--4-4-4-4-4-4-4-4-3--3-3-3-3-3-3-|


----------------------------------|---------------------------------|
----------------------------------|---------------------------------|
----------------------------------|---------------------------------|
--3-3-3-3-3-3-3-3-3-3-3-3-3-3-3-3-|--3-3-3-3-3-3-3-3-4--4-4-4-4-4-4-|


----------------------------------|----------------------------------|
------------------3-3-3-3-3-3-3-3-|--1-1-1-1-1-1-1-1-0-0-0-0-0-0-0-0-|
----------------------------------|----------------------------------|
--4-4-4-4-4-4-4-4-----------------|----------------------------------|


----------------------------------|----------------------------------|
--0-0-0-0-0-0-0-0-0-0-0-0-0-0-0-0-|--0-0-0-0-0-0-0-0-1-1-1-1-1-1-1-1-|
----------------------------------|----------------------------------|
----------------------------------|----------------------------------|


----------------------------------|----------------------------------|
--1-1-1-1-1-1-1-1-----------------|------------------2-2-2-2-2-2-2-2-|
------------------2-2-2-2-2-2-2-2-|--2-2-2-2-2-2-2-2-----------------|
----------------------------------|----------------------------------|


----------------------------------|----------------------------------|
--2-2-2-2-2-2-2-2-0-0-0-0-0-0-0-0-|--0-0-0-0-0-0-0-0-1-1-1-1-1-1-1-1-|
----------------------------------|----------------------------------|
----------------------------------|----------------------------------|


---------------------------------|--------------------------|------------------|
--1-1-1-1-1-1-1-1----------------|--------------------------|------------------|
---------------------------------|--------------------------|------------------|
------------------4--4-4-4-4-4-4-|--4-4-4-4-4-4-4-4---------|------------------|


------------------0-------|--------------0---0---------------|
----------2-4-------4-----|--2-4-----------4---4-----2-4-----|
--------------------------|----------------------------------|
--------------2-2-----2-2-|------2-2-2-2---------2-2-----2-2-|


----0-4---3--0-----------0-------|--------------------0-4---3------|
--4------------2-2-4-------4-----|--2-4---------4-2-4----------4-2-|
---------------------------------|---------------------------------|
--------2------------2-2-----2-2-|------2-2-2-2-----------2--------|


----0-----0-3-0---------0-----0-3-|--0---6-7-6---5-6-5---4-2-4-5-4-2-|
--4---4-2-------2-4-2-4---4-2-----|----2-------7-------7-------------|
----------------------------------|----------------------------------|
----------------------------------|----------------------------------|


----0-----0-3-0---3--3-3-4-3-3-3-|--3--3----3-3-4-3-3-3-3--3--|
--4---4-2-------2----------------|----------------------------|
---------------------------------|----------------------------|
---------------------------------|----------------------------|


----3-3-4----3--3-3-4-3-3-3-|--3--3----3-3-4-3-8-4-7-8-7---|
----------------------------|----------------------------9-|
----------------------------|------------------------------|
----------------------------|------------------------------|


----------4----3--3-3-4-3-3-3-|--3--3----3-3-4-3-3-3-3--3--|
--8-9-8-6---------------------|----------------------------|
------------------------------|----------------------------|
------------------------------|----------------------------|


----3-3-4----3--3-3-4-3-3-3-|--3--3----3-3-4-3-8-4-7-8-7---|
----------------------------|----------------------------9-|
----------------------------|------------------------------|
----------------------------|------------------------------|


----------4----6--6-6-7-6-6-6-|--6--6----6-6-7-6-6-6-6--6--|
--8-9-8-6---------------------|----------------------------|
------------------------------|----------------------------|
------------------------------|----------------------------|


----6-6-7----6--6-6-7-6-6-6-|--6--6----6-6-7-6-11-7-10-11-10----|
----------------------------|--------------------------------12-|
----------------------------|-----------------------------------|
----------------------------|-----------------------------------|


-------------7----6--6-6-7-6-6-6-|--6--6----6-6-7-6-6-6-6--6--|
--11-12-11-9---------------------|----------------------------|
---------------------------------|----------------------------|
---------------------------------|----------------------------|


----6-6-7----6--6-6-7-6-6-6-|--6--6----6-6-7-6-11-7-10-11-10----|
----------------------------|--------------------------------12-|
----------------------------|-----------------------------------|
----------------------------|-----------------------------------|


----------------------------------|--------------------------------|
--11-12-11-9-11-------------------|--------------------------------|
----------------------------------|--------------------------------|
-------------------9--9-9-9-9-10--|--9-9-10--9-10-9-7-9--9-9-10----|


----------------------------------|---------------------|
----------------------------------|---------------------|
----------------------------------|-----------6---------|
--9--9-9-9-9-10--9-9-10--9-10-9-7-|--9-------------3----|


---------------------------------|----------------------------------|
---------------------------------|----------------------------------|
---------------------------------|----------------------------------|
--4--4-4-4-4-4-4-4-4-4-4-4-4-4-4-|--4-4-4-4-4-4-4-4-4-4-4-4-4-4-4-4-|


---------------------------------|----------------------------------|
---------------------------------|----------------------------------|
---------------------------------|----------------------------------|
--3--3-3-3-3-3-3-3-3-3-3-3-3-3-3-|--3-3-3-3-3-3-3-3-3-3-3-3-3-3-3-3-|


---------------------------------|----------------------------------|
---------------------------------|--3-3-3-3-3-3-3-3-1-1-1-1-1-1-1-1-|
---------------------------------|----------------------------------|
--4--4-4-4-4-4-4-4-4-4-4-4-4-4-4-|----------------------------------|


----------------------------------|----------------------------------|
--0-0-0-0-0-0-0-0-0-0-0-0-0-0-0-0-|--0-0-0-0-0-0-0-0-0-0-0-0-0-0-0-0-|
----------------------------------|----------------------------------|
----------------------------------|----------------------------------|


----------------------------------|----------------------------------|
--1-1-1-1-1-1-1-1-1-1-1-1-1-1-1-1-|----------------------------------|
----------------------------------|--2-2-2-2-2-2-2-2-2-2-2-2-2-2-2-2-|
----------------------------------|----------------------------------|


----------------------------------|----------------------------------|
--2-2-2-2-2-2-2-2-2-2-2-2-2-2-2-2-|--0-0-0-0-0-0-0-0-0-0-0-0-0-0-0-0-|
----------------------------------|----------------------------------|
----------------------------------|----------------------------------|


----------------------------------|------------------------------|
--1-1-1-1-1-1-1-1-1-1-1-1-1-1-1-1-|------------------------------|
----------------------------------|-------------------------1----|
----------------------------------|--4--4-4-4-4-4-4-4-4-4-4------|


-------------------|-------------------|------------------|
-------------------|-------------------|------------------|
--2----------------|--4----------------|------------------|
-------------------|-------------------|------------------|


--------------------------------|--------------------------------|
--------------------------------|--------------------------------|
--4----4----4----4----4----4----|--4----4----4----4----4----4----|
--------------------------------|--------------------------------|


----------------------|-------------------|--------------------|
-----------4--3--2----|----------1--------|------0-------------|
----------------------|-------------------|-------------4------|
--2-------------------|-------------------|--------------------|


---------------------|--------------------|--------------------|
---------------------|--------------------|------0------2------|
--2----------0-------|--------------------|--------------------|
----------------4----|--------2--1--------|--------------------|


--------------------|-------------------|--------------------|
--------------------|-------------------|--------------------|
--0-----------------|-------------------|--------------------|
---------------3----|----------2--------|------1------0------|


--------------------|-------------------|--------------------|
--------------------|-------------------|--------------------|
--0-----------------|-------------------|--------------------|
---------------3----|----------1--------|----3--4------------|


------------------|---------------------------|----------------------------|
------------------|-------------0-------------|--------0-------------------|
------------------|------4--4-4---4-4-4-4--4--|----4-4---4-4-4-4--4----4-4-|
------------------|---------------------------|----------------------------|


----------------------0-----|--------------------------------|
--0-----------0-------------|--------0---4-0-3-4-3-0---0-----|
-------4--4-4---4-4-4-4--4--|----4-4---4-------------4---4-2-|
----------------------------|--------------------------------|


----------------------------|----------------0-----------|
--------------0-------------|--------0-------------------|
--4----4--4-4---4-4-4-4--4--|----4-4---4-4-4-4--4----4-4-|
----------------------------|----------------------------|


--2-------------------------|--------------------------------|
--0-----------0-------------|--------0---4-0-3-4-3-0---0-----|
-------4--4-4---4-4-4-4--4--|----4-4---4-------------4---4-2-|
----------------------------|--------------------------------|


----------------------------|----------------------------|
-------2--2-2-3-2-2-2-2--2--|----2-2-3-2-2-2-2--2----2-2-|
--4-------------------------|----------------------------|
----------------------------|----------------------------|


----------------------------|------------2---1-2-1-----------|
--3----2--2-2-3-2-2-2-2--2--|----2-2-3-2---3-------3-2-3-2-0-|
----------------------------|--------------------------------|
----------------------------|--------------------------------|


----------------------------|----------------------------|
--2----2--2-2-3-2-2-2-2--2--|----2-2-3-2-2-2-2--2----2-2-|
----------------------------|----------------------------|
----------------------------|----------------------------|


----------------------------|------------2---1-2-1-----------|
--3----2--2-2-3-2-2-2-2--2--|----2-2-3-2---3-------3-2-3-2-0-|
----------------------------|--------------------------------|
----------------------------|--------------------------------|


------------------------------|--------------------------------|
--2----2--2-2-2-2-2-2-0-0-0-0-|--0-0-0-0-----------------------|
------------------------------|----------4--4-4-4-4-4--4-4-4-4-|
------------------------------|--------------------------------|


----------------------|------------------|------------------|------------------|
----------------------|------------------|------------------|------------------|
--4--4-4-4------------|------------------|------------------|------------------|
----------------------|------------------|------------------|------------------|


--------------------|-------------------|------------------|
------0-------------|-------------------|------------------|
---------4--2--3----|-------------------|------------------|
------------------3-|---2--0------------|------------------|


-----------------------------|----------------------------------|
-----------------------------|----------------------------------|
------0--0-0-0-0-0-0-0-0-0-0-|--0-0-0-0-0-0-0-0-0-0-0-0-0-0-0-0-|
-----------------------------|----------------------------------|


---------------------------------|----------------------------------|
---------------------------------|----------------------------------|
--0-0-0-0------------------------|----------------------------------|
----------4--4-4-4-4-4-4-4-4-4-4-|--4-4-4-4-4-4-4-4-4-4-4-4-4-4-4-4-|


---------------------------------|----------------------------------|
---------------------------------|----------4-4-4-4-4-4-4-4-2-2-2-2-|
----------0--0-0-0-0-0-0-0-0-0-0-|--0-0-0-0-------------------------|
--4-4-4-4------------------------|----------------------------------|


----------------------------------|----------------------------------|
--2-2-2-2-1-1-1-1-1-1-1-1-1-1-1-1-|--1-1-1-1-1-1-1-1-1-1-1-1-1-1-1-1-|
----------------------------------|----------------------------------|
----------------------------------|----------------------------------|


----------------------------------|----------------------------------|
--1-1-1-1-2-2-2-2-2-2-2-2-2-2-2-2-|--2-2-2-2-------------------------|
----------------------------------|----------3-3-3-3-3-3-3-3-3-3-3-3-|
----------------------------------|----------------------------------|


----------------------------------|----------------------------------|
----------3-3-3-3-3-3-3-3-3-3-3-3-|--3-3-3-3-1-1-1-1-1-1-1-1-1-1-1-1-|
--3-3-3-3-------------------------|----------------------------------|
----------------------------------|----------------------------------|


----------------------------------|---------------------------------|
--1-1-1-1-2-2-2-2-2-2-2-2-2-2-2-2-|--2-2-2-2------------------------|
----------------------------------|----------0--0-0-0-0-0-0-0-0-0-0-|
----------------------------------|---------------------------------|


--------------------------------|-------------------------------|
--------------------------------|-------------------------------|
--0-0-0-0-----------------------|-------------------------------|
----------0--0-0-0--0-0-0-0-0-0-|--0--0-0-0--0-0-0--0-0-0-0-0-0-|


----------1--1-1-1--1-1-1-1-1-1-|--1-1-1-1-1--1-1-1--1-1-1-1-1-1-|
--------------------------------|--------------------------------|
--------------------------------|--------------------------------|
--0-0-0-0-----------------------|--------------------------------|


--1-1-1-1-8--0-0-0--0-0-0--0-0-|--0-0-0-0-0--0-0-0--0-0-0--0-0-|
----------5--------------------|-------------------------------|
-------------------------------|-------------------------------|
-------------------------------|-------------------------------|


--0-0-0-0-8--------------------|----------15------------------15--------|
----------6--6-6-6--6-6-6--6-6-|--6-6-6-6-15--15-15-15--15-15-13--13-13-|
-------------------------------|----------------------------------------|
-------------------------------|----------------------------------------|


--------------15----------------------------|
--13-13-13-13-12--12-12-12--12-12-12--12-12-|
--------------------------------------------|
--------------------------------------------|


--------------------------------------------|
--12-12-12-12-12--12-12-12--12-12-12--12-12-|
--------------------------------------------|
--------------------------------------------|


--------------------------------------------------|
--12-12-12-12-------------------------------------|
--------------------------------------------------|
--------------11-11-11-11-11-11-11-11-11-11-11-11-|


--------------------------------------|----------------------------------|
--------------------------------------|----------------------------------|
--------------------------------------|----------7-7-7-7-7-7-7-7-7-7-7-7-|
--11-11-11-11-7-7-7-7-7-7-7-7-7-7-7-7-|--7-7-7-7-------------------------|


----------------------------------|----------------------------------|
----------0-0-0-0-0-0-0-0-0-0-0-0-|--0-0-0-0-1-1-1-1-1-1-1-1-1-1-1-1-|
--7-7-7-7-------------------------|----------------------------------|
----------------------------------|----------------------------------|


---------------------------------|--------------------|-------------------|
--1-1-1-1------------------------|--------------------|-------------------|
---------------------------------|--1----2------------|------4------------|
----------4--4-4-4-4-4-4-4-4-4-4-|--------------------|-------------------|


------------------|--------------0---------------|
------------------|------2-4-------4-----2-4-----|
------------------|------------------------------|
------------------|----------2-2-----2-2-----2-2-|


------0---0-----------------0-4---|--3--0-----------0---------------|
--------4---4-----2-4-----4-------|-------2-2-4-------4-----2-4-----|
----------------------------------|---------------------------------|
--2-2---------2-2-----2-2-------2-|-------------2-2-----2-2-----2-2-|


------------0-4---3--------0-----|--0-3-0-----------0---------------|
------4-2-4----------4-2-4---4-2-|--------2-2-4-------4-----2-4-----|
---------------------------------|----------------------------------|
--2-2-----------2----------------|--------------2-2-----2-2-----2-2-|


------0---0-----------------0-4---|--3--0-----------0---------------|
--------4---4-----2-4-----4-------|-------2-2-4-------4-----2-4-----|
----------------------------------|---------------------------------|
--2-2---------2-2-----2-2-------2-|-------------2-2-----2-2-----2-2-|


------------0-4---3--------0-----|--0-3-0-----0-----0-3-0---6-7-6---|
------4-2-4----------4-2-4---4-2-|--------2-4---4-2-------2-------7-|
---------------------------------|----------------------------------|
--2-2-----------2----------------|----------------------------------|


--5-6-5---------0-----0-3-0---6-7-|--6---5-6-5---------0-----0-3-0---|
--------7-4-2-4---4-2-------2-----|----7-------7-4-2-4---4-2-------2-|
----------------------------------|----------------------------------|
----------------------------------|----------------------------------|


--6-7-6---5-6-5---------0-----0-3-|--0---6-7-6---5-6-5-------0-----0-|
--------7-------7-4-2-4---4-2-----|----2-------7-------7-4-2---4-2---|
----------------------------------|----------------------------------|
----------------------------------|----------------------------------|


----0-----3---12-9-----------|----------------------------|
------4-2----------11-8------|----------------------------|
------------------------10-7-|----------------------------|
-----------------------------|--8-8-8-8-8----8-8-8-8-8----|


-----------------------|-----------------------|----------------------------|
-----------------------|-----------------------|----------------------------|
-----------------------|-----------------------|----------------------------|
----------8-8-8-8-8----|--8-8-8-8-8------------|--8-8-8-8-8----8-8-8-8-8----|


-----------------------|-----------------------|----------------------------|
-----------------------|-----------------------|----------------------------|
-----------------------|-----------------------|----------------------------|
----------8-8-8-8-8----|--8-8-8-8-8------------|--8-8-8-8-8----8-8-8-8-8----|


-----------------------|-----------------------|----------------------------|
-----------------------|-----------------------|----------------------------|
-----------------------|-----------------------|----------------------------|
----------8-8-8-8-8----|--8-8-8-8-8------------|--8-8-8-8-8----8-8-8-8-8----|


-----------------------|-----------------------|----------------------------|
-----------------------|-----------------------|----------------------------|
-----------------------|-----------------------|----------------------------|
----------8-8-8-8-8----|--8-8-8-8-8------------|--8-8-8-8-8----8-8-8-8-8----|


---|---||
---|---||
---|---||
---|---||
comments
We did not receive enough feedback on this tab! Please rate:
print report bad tab
1 2 3 4 5
I want to post or [tab]
guest
You may want to rate the tab now too:
select rating
Please do not post tabs as comments. Select "correction" instead!