Oops, an error
Loading. Please wait.

In The Dragons Den Bass Tab

ver1
ver1

Whole song

More versions @911Tabs.com
351 views 3 this week
no commentswrite comment
1 2 3 4 5
please rate
Autoscroll
+/-
esc
set tempo
stop
Contributor
Hey! There's an official Ultimate Guitar app which is ideal
for learning songs when you're away from computer. Get the app
WARNING: You are trying to view
                                    content from Ultimate-Guitar.com
                                    in an unauthorized application,
                                    which is prohibited.

                                    Please use an official Ultimate
                                    Guitar Tabs application for iPhone,
                                    iPad or Android to access legitimate
                                    chords, guitar, bass, and drum tabs
                                    from Ultimate-Guitar.com database.

                                    Type "ultimate guitar tabs" in Apple
                                    App Store's or Android Market's
                                    search to find the application.
Symphony X - In The Dragons Den

tune down

F||------------------|------------------|--------------|
C||------------------|------------------|--------------|
G||------------------|------------------|--------------|
D||------------------|------------------|--------------|
A||------------------|------------------|--------------|


  
----------------------------------|----------------------------------|
----------------------------------|----------------------------------|
----------1-----------1---1-------|------1-----------1---1-----------|
--2-0-2-3---3-2-0-2-3---3---3-2-0-|--2-3---3-2-0-2-3---3---3-2-0-2-3-|
----------------------------------|----------------------------------|



----------------------------------|--------------------------------|
----------------------------------|--------------------------------|
--1-----------1---1---------------|------1-----------1-------------|
----3-2-0-2-3---3---3-2-0-2-3-2-0-|--2-3---3-2-0-2-3---3-2-0-2--0--|
----------------------------------|--------------------------------|


  
----------------------------------|----------------------------------|
----------------------------------|----------------------------------|
----------1-----------1---1-------|------1-----------1---1-----------|
--2-0-2-3---3-2-0-2-3---3---3-2-0-|--2-3---3-2-0-2-3---3---3-2-0-2-3-|
----------------------------------|----------------------------------|


   
----------------------------------|-------------------------------|
----------------------------------|-------------------------------|
--1-----------1---1---------------|------1-----------1------------|
----3-2-0-2-3---3---3-2-0-2-3-2-0-|--2-3---3-2-0-2-3---3-2-0-2----|
----------------------------------|-------------------------------|


                          
----------------------------|----------------------------|
----------------------------|----------------------------|
----------------------------|----------------------------|
--2---2-3--2--2-2-2--2--0-2-|--3--2--2-2-2--2--0-2-3--2--|
----------------------------|----------------------------|


                            
-----------------------------|-----------------------------|
-----------------------------|-----------------------------|
-----------------------------|-----------------------------|
--2-2-2--2--0-2-3--2--2-2-2--|--2--0-2-3--2--2-2-2--2--0-2-|
-----------------------------|-----------------------------|


           
----------------------------|-----------------------------|-------------------|
----------------------------|-----------------------------|-------------------|
----------------------------|-----------------------------|-------------------|
--3--2--2-2-2--2--0-2-3--2--|--2-2-2--2--0-2-3--2--2-2-2--|--0----------------|
----------------------------|-----------------------------|-------------------|


          
-------------------|----------------------------|----------------------------|
-------------------|----------------------------|----------------------------|
-------------------|----------------------------|----------------------------|
--1----------------|--2---2-3--2--2-2-2--2--0-2-|--3--2--2-2-2--2--0-2-3--2--|
-------------------|----------------------------|----------------------------|


                            
-----------------------------|-----------------------------|
-----------------------------|-----------------------------|
-----------------------------|-----------------------------|
--2-2-2--2--0-2-3--2--2-2-2--|--2--0-2-3--2--2-2-2--2--0-2-|
-----------------------------|-----------------------------|


           
----------------------------|-----------------------------|-------------------|
----------------------------|-----------------------------|-------------------|
----------------------------|-----------------------------|-------------------|
--3--2--2-2-2--2--0-2-3--2--|--2-2-2--2--0-2-3--2--2-2-2--|--0----------------|
----------------------------|-----------------------------|-------------------|


                              
----------------------------------|--------------------------|
-------------------3--6--3--------|--------------------------|
-------------2--5-----------5--2--|--5--------5----7----8----|
--1----1--4-----------------------|--------------------------|
----------------------------------|--------------------------|


 
--------------------|--------------------------|--------------------|
--------------------|--------------------------|--------------------|
--7-----------------|--------------------------|-----------6--------|
---------------4----|--5--------5----7----8----|--7-----------------|
--------------------|--------------------------|--------------------|


  
---------------------------|--------------------|--------------------|
---------------------------|--------------------|--------------------|
--7--------7----9----10----|--9-----------------|--------------------|
---------------------------|-----------6--------|--7--------5--------|
---------------------------|--------------------|--------------------|


                        
--------------------|----------------------------------|
--------------------|----------------------------------|
-----------4--------|----------1-----------1---1-------|
--3-----------------|--2-0-2-3---3-2-0-2-3---3---3-2-0-|
--------------------|----------------------------------|



----------------------------------|----------------------------|
----------------------------------|----------------------------|
------1-----------1-2-4-2-1-------|----------------------------|
--2-3---3-2-0-2-3-----------3-2-0-|--2---2-3--2--2-2-2--2--0-2-|
----------------------------------|----------------------------|


                           
----------------------------|-----------------------------|
----------------------------|-----------------------------|
----------------------------|-----------------------------|
--3--2--2-2-2--2--0-2-3--2--|--2-2-2--2--0-2-3--2--2-2-2--|
----------------------------|-----------------------------|


                           
-----------------------------|----------------------------|
-----------------------------|----------------------------|
-----------------------------|----------------------------|
--2--0-2-3--2--2-2-2--2--0-2-|--3--2--2-2-2--2--0-2-3--2--|
-----------------------------|----------------------------|


  
-----------------------------|-------------------|-------------------|
-----------------------------|-------------------|-------------------|
-----------------------------|-------------------|-------------------|
--2-2-2--2--0-2-3--2--2-2-2--|--0----------------|--1----------------|
-----------------------------|-------------------|-------------------|


                          
----------------------------|----------------------------|
----------------------------|----------------------------|
----------------------------|----------------------------|
--2---2-3--2--2-2-2--2--0-2-|--3--2--2-2-2--2--0-2-3--2--|
----------------------------|----------------------------|


                            
-----------------------------|-----------------------------|
-----------------------------|-----------------------------|
-----------------------------|-----------------------------|
--2-2-2--2--0-2-3--2--2-2-2--|--2--0-2-3--2--2-2-2--2--0-2-|
-----------------------------|-----------------------------|


           
----------------------------|-----------------------------|-------------------|
----------------------------|-----------------------------|-------------------|
----------------------------|-----------------------------|-------------------|
--3--2--2-2-2--2--0-2-3--2--|--2-2-2--2--0-2-3--2--2-2-2--|--0----------------|
----------------------------|-----------------------------|-------------------|


                              
----------------------------------|--------------------------|
-------------------3--6--3--------|--------------------------|
-------------2--5-----------5--2--|--5--------5----7----8----|
--1----1--4-----------------------|--------------------------|
----------------------------------|--------------------------|


 
--------------------|--------------------------|--------------------|
--------------------|--------------------------|--------------------|
--7-----------------|--------------------------|-----------6--------|
---------------4----|--5--------5----7----8----|--7-----------------|
--------------------|--------------------------|--------------------|


                 
---------------------------|--------------------|
---------------------------|--------------------|
--7--------7----9----10----|--9-----------------|
---------------------------|-----------6--------|
---------------------------|--------------------|


  
----------------------------------|----------------------------------|
----------------------------------|----------------------------------|
--5-5-5-5-5-5-5-5-5-5-5-5-5-5-5-5-|--5-5-5-5-5-5-5-5-5-5-5-5-5-5-5-5-|
----------------------------------|----------------------------------|
----------------------------------|----------------------------------|


  
----------------------------------|----------------------------------|
----------------------------------|------------------------5---------|
--5-5-5-5-5-5-5-5-5-5-5-5-5-5-5-5-|--5-5-5-5-5-5-5-5-5-7-8---8-7-5---|
----------------------------------|--------------------------------8-|
----------------------------------|----------------------------------|


  
----------------------------------|----------------------------------|
----------------------------------|----------------------------------|
----------------------------------|----------------------------------|
--6-6-6-6-6-6-6-6-6-6-6-6-5-5-5-5-|--4-4-4-4-4-4-4-4-4-4-4-4-4-4-4-4-|
----------------------------------|----------------------------------|


                              
--------------------------|----------6-----------6---6-------|
--------------------------|--7-5-7-8---8-7-5-7-8---8---8-7-5-|
--------------------------|----------------------------------|
--5------5----5-5-5-5-5-5-|----------------------------------|
--------------------------|----------------------------------|


  
----------------------------------|----------------------------------|
----------------------------------|----------------------------------|
--5-5-5-5-5-5-5-5-5-5-5-5-5-5-5-5-|--5-5-5-5-5-5-5-5-5-5-5-5-5-5-5-5-|
----------------------------------|----------------------------------|
----------------------------------|----------------------------------|


  
----------------------------------|----------------------------------|
----------------------------------|------------------------5---------|
--5-5-5-5-5-5-5-5-5-5-5-5-5-5-5-5-|--5-5-5-5-5-5-5-5-5-7-8---8-7-5---|
----------------------------------|--------------------------------8-|
----------------------------------|----------------------------------|


  
----------------------------------|----------------------------------|
----------------------------------|----------------------------------|
----------------------------------|----------------------------------|
--6-6-6-6-6-6-6-6-6-6-6-6-5-5-5-5-|--4-4-4-4-4-4-4-4-4-4-4-4-4-4-4-4-|
----------------------------------|----------------------------------|


    
-----------------------|-----------------------|-----------------------|
-----------------------|-----------------------|-----------------------|
-----------------------|--2------2----2-2-2----|-----------------------|
--5------5----5-5-5----|-----------------------|--4------2-4-5----2----|
-----------------------|-----------------------|-----------------------|


    
-----------------------|-----------------------|-----------------------|
-----------------------|-----------------------|-----------------------|
-----------------------|-----------------------|-----------------------|
--4------4----2-4-5----|--4------2-4-5----2----|--4------4----2-4-5----|
-----------------------|-----------------------|-----------------------|


    
-----------------------|-----------------------|-----------------------|
-----------------------|-----------------------|-----------------------|
--2------0-2-3----0----|--2------2----0-2-3----|--2------0-2-3----0----|
-----------------------|-----------------------|-----------------------|
-----------------------|-----------------------|-----------------------|


    
-----------------------|-----------------------|-----------------------|
-----------------------|-----------------------|-----------------------|
--2------2----0-2-3----|-----------------------|-----------------------|
-----------------------|--4------2-4-5----2----|--4------4----2-4-5----|
-----------------------|-----------------------|-----------------------|


    
-----------------------|-----------------------|-----------------------|
-----------------------|-----------------------|-----------------------|
-----------------------|------------------0----|--2------0-2-3----0----|
--4------2-4-5----2----|--4------4----2-4------|-----------------------|
-----------------------|-----------------------|-----------------------|


    
-----------------------|-----------------------|-----------------------|
-----------------------|-----------------------|-----------------------|
--2------2----0-2-3----|--2------0-2-3----0----|--2------2----0-2-3----|
-----------------------|-----------------------|-----------------------|
-----------------------|-----------------------|-----------------------|


                      
--------------------------|--------------------------|
--------------------------|--------------------------|
--2--2--2--2--2--2--2--2--|--0--0--0--0--0--0--0--0--|
--------------------------|--------------------------|
--------------------------|--------------------------|


            
--------------------------|--------------------------|-------------------------|
--------------------------|--------------------------|-------------------------|
--------------------------|--------------------------|-------------------------|
--3--3--3--3--3--3--3--3--|--2--2--2--2--2--2--2--2--|--3----3--3--3--3--3--3--|
--------------------------|--------------------------|-------------------------|


       
-------------------------|-------------------------|----------------------|
-------------------------|-------------------------|----------------------|
--0----0--0--0--0--0--0--|--1----1--1--1--1--1--1--|--3------0---------0--|
-------------------------|-------------------------|------------2---------|
-------------------------|-------------------------|----------------------|


                          
----------------------|----------------------------------|
------------4---------|----------5-----------3---------5-|
--3------5---------5--|--------5---5-------------6-5-3---|
----------------------|--3-5-6-------6-5-3-6---3---------|
----------------------|----------------------------------|


                             
-------------------------------|----------------------------|
--3-5---5---5---5---5---5------|----------------------------|
------6---5---3----------------|--5---5-6--5--5-5-5--5--3-5-|
------------------6---5---3----|----------------------------|
-------------------------------|----------------------------|


                           
----------------------------|-----------------------------|
----------------------------|-----------------------------|
--6--5--5-5-5--5--3-5-6--5--|--5-5-5--5--3-5-6--5--5-5-5--|
----------------------------|-----------------------------|
----------------------------|-----------------------------|


                           
-----------------------------|----------------------------|
-----------------------------|----------------------------|
--5--3-5-6--5--3-3-3--3-3-3--|--5---5-6--5--5-5-5--5--3-5-|
-----------------------------|----------------------------|
-----------------------------|----------------------------|


                           
----------------------------|-----------------------------|
----------------------------|-----------------------------|
--6--5--5-5-5--5--3-5-6--5--|--5-5-5--5--3-5-6--5--5-5-5--|
----------------------------|-----------------------------|
----------------------------|-----------------------------|


                           
-----------------------------|----------------------------|
-----------------------------|----------------------------|
--5--3-5-6--5--3-3-3--3-3-3--|--2---2-3--2--2-2-2--2--0-2-|
-----------------------------|----------------------------|
-----------------------------|----------------------------|


                           
----------------------------|-----------------------------|
----------------------------|-----------------------------|
--3--2--2-2-2--2--0-2-3--2--|--2-2-2--2--0-2-3--2--2-2-2--|
----------------------------|-----------------------------|
----------------------------|-----------------------------|


                           
-----------------------------|----------------------------|
-----------------------------|----------------------------|
--2--0-2-3--2--0-0-0--0-0-0--|--2---2-3--2--2-2-2--2--0-2-|
-----------------------------|----------------------------|
-----------------------------|----------------------------|


                           
----------------------------|-----------------------------|
----------------------------|-----------------------------|
--3--2--2-2-2--2--0-2-3--2--|--2-2-2--2--0-2-3--2--2-2-2--|
----------------------------|-----------------------------|
----------------------------|-----------------------------|


          
-----------------------------|--------------------------|--------------------|
-----------------------------|--------------------------|--------------------|
--2--0-2-3--2--0-0-0--0-0-0--|--5--------5----7----8----|--7~----------------|
-----------------------------|--------------------------|---------------4----|
-----------------------------|--------------------------|--------------------|


        
--------------------------|--------------------|---------------------------|
--------------------------|--------------------|---------------------------|
--------------------------|-----------6--------|--7--------7----9----10----|
--5--------5----7----8----|--7-----------------|---------------------------|
--------------------------|--------------------|---------------------------|


                        
--------------------|----------------------------------|
--------------------|----------------------------------|
--9-----------------|--5-5-5-5-5-5-5-5-5-5-5-5-5-5-5-5-|
-----------6--------|----------------------------------|
--------------------|----------------------------------|


  
----------------------------------|----------------------------------|
----------------------------------|----------------------------------|
--5-5-5-5-5-5-5-5-5-5-5-5-5-5-5-5-|--5-5-5-5-5-5-5-5-5-5-5-5-5-5-5-5-|
----------------------------------|----------------------------------|
----------------------------------|----------------------------------|


  
----------------------------------|----------------------------------|
------------------------5---------|----------------------------------|
--5-5-5-5-5-5-5-5-5-7-8---8-7-5-3-|--1-1-1-1-1-1-1-1-1-1-1-1-0-0-0-0-|
----------------------------------|----------------------------------|
----------------------------------|----------------------------------|


                              
----------------------------------|--------------------------|
----------------------------------|--------------------------|
----------------------------------|--------------------------|
--4-4-4-4-4-4-4-4-4-4-4-4-4-4-4-4-|--5------5----5-5-5-5-5-5-|
----------------------------------|--------------------------|


  
----------6-----------6---6-------|----------------------------------|
--7-5-7-8---8-7-5-7-8---8---8-7-5-|----------------------------------|
----------------------------------|--5-5-5-5-5-5-5-5-5-5-5-5-5-5-5-5-|
----------------------------------|----------------------------------|
----------------------------------|----------------------------------|


  
----------------------------------|----------------------------------|
----------------------------------|----------------------------------|
--5-5-5-5-5-5-5-5-5-5-5-5-5-5-5-5-|--5-5-5-5-5-5-5-5-5-5-5-5-5-5-5-5-|
----------------------------------|----------------------------------|
----------------------------------|----------------------------------|


  
----------------------------------|----------------------------------|
------------------------5---------|----------------------------------|
--5-5-5-5-5-5-5-5-5-7-8---8-7-5-3-|--1-1-1-1-1-1-1-1-1-1-1-1-0-0-0-0-|
----------------------------------|----------------------------------|
----------------------------------|----------------------------------|


                           
----------------------------------|-----------------------|
----------------------------------|-----------------------|
----------------------------------|-----------------------|
--4-4-4-4-4-4-4-4-4-4-4-4-4-4-4-4-|--5------5----5-5-5----|
----------------------------------|-----------------------|



-----------------------|-------------------------------------------|
-----------------------|----------6-----------6---6----------------|
--2------2----2-2-2----|--7-5-7-8---8-7-5-7-8---8---8-7-5-7--------|
-----------------------|-------------------------------------------|
-----------------------|-------------------------------------------|


    
-----------------------------------|-----------------------------------|
----------6-----------6------------|----------6------------------------|
--7-5-7-8---8-7-5-7-8---8-7--------|--7-5-7-8---8-7-5-7--------7-5-7-8-|
-----------------------------------|-----------------------------------|
-----------------------------------|-----------------------------------|


    
------------------------|----------------------|----------------------||
------------------------|----------------------|----------------------||
--7----------------7----|----------------------|----------------------||
------------------------|----------------------|----------------------||
------------------------|----------------------|----------------------||
comments
We did not receive enough feedback on this tab! Please rate:
print report bad tab
1 2 3 4 5
I want to post or [tab]
guest
You may want to rate the tab now too:
select rating
Please do not post tabs as comments. Select "correction" instead!