Oops, an error
Loading. Please wait.

In The Dragons Den Tab

ver1
ver1

Whole song

More versions @911Tabs.com
3,699 views 3 this week
1 commentread comment
1 2 3 4 5
accurate
x 3
Autoscroll
+/-
esc
set tempo
stop
WARNING: You are trying to view
                                    content from Ultimate-Guitar.com
                                    in an unauthorized application,
                                    which is prohibited.

                                    Please use an official Ultimate
                                    Guitar Tabs application for iPhone,
                                    iPad or Android to access legitimate
                                    chords, guitar, bass, and drum tabs
                                    from Ultimate-Guitar.com database.

                                    Type "ultimate guitar tabs" in Apple
                                    App Store's or Android Market's
                                    search to find the application.
                                In the Dragon's Den 

Transcribed and tabbed by Noghy ( Solo kindly given from Michael Romeo )
Noghy@caramail.com
http://members.xoom.com/kansasanthem


downtuned a whole step
 
Intro riff :
E------------------------------------------------------|
B------------------------------------------------------|
G------------------------------------------------------|
D------------------------------------------------------|
A---------1-----------1-1-----------1-----------1-1----|
E-2-0-2-3---3-2-0-2-3-----3-2-0-2-3---3-2-0-2-3-----3--|

E--------------------------------------------------------------------|
B--------------------------------------------------------------------|
G--------------------------------------------------------------------|
D--------------------------------------------------------------------|
A---------1-----------1-1-----------------1---------------1----------|
E-2-0-2-3---3-2-0-2-3-----3-2-0-2-3-2-0-3---3-0-1-3-1-0-3---3-0-1ah--|

E------------------------------------------------------|
B------------------------------------------------------|
G------------------------------------------------------|
D------------------------------------------------------|
A---------1-----------1-1-----------1-----------1-1----|
E-2-0-2-3---3-2-0-2-3-----3-2-0-2-3---3-2-0-2-3-----3--|

E--------------------------------------------------------------------|
B--------------------------------------------------------------------|
G--------------------------------------------------------------------|
D--------------------------------------------------------------------|
A---------1-----------1-1-----------------1---------------1----------|
E-2-0-2-3---3-2-0-2-3-----3-2-0-2-3-2-0-3---3-0-1-3-1-0-3---3-0-1ah--|

Verse 1 :
E----------------------------------------------------|
B----------------------------------------------------|
G----------------------------------------------------|
D----------------------------------------------------|
A-4--4-4------------4------------4--(sim)----2----3--|
E-2--2-2--2-2-2--2--2--2-2-2--2--2-----------0----1--|

E-------------------------------------------------------------------|
B-------------------------------------------------------------------|
G-------------------------------------------------------------------|
D---------------------------------------------------------3-6-3-----|
A-4--4-4------------4------------4--(sim)--2----3-----2-5-------5-4-|
E-2--2-2--2-2-2--2--2--2-2-2--2--2---------0----1-1-4---------------|

Pre-chorus
E--------------------------------------------------------|
B--------------------------------------------------------|
G-----------------------------------------3--------------|
D-7-----------------------4---------------4---4--2-----6-|
A-5--5-7-8-7---7----------6---2-----------0---2--0--5--4-|
E--------------5--5-7-8-7-----0--0-2-3-2------------3----|

E-----------------------------------------------------------------|
B-----------------------------------------------------------------|
G-----------------------------------------------------------------|
D-----------------------------------------------------------------|
A---------1-----------1-1-----------1-----------1-2-4-2-1---------|
E-2-0-2-3---3-2-0-2-3-----3-2-0-2-3---3-2-0-2-3-----------3-2-0-2-|

Verse 2 :
E----------------------------------------------------|
B----------------------------------------------------|
G----------------------------------------------------|
D----------------------------------------------------|
A-4--4-4------------4------------4--(sim)----2----3--|
E-2--2-2--2-2-2--2--2--2-2-2--2--2-----------0----1--|

E-------------------------------------------------------------------|
B-------------------------------------------------------------------|
G-------------------------------------------------------------------|
D---------------------------------------------------------3-6-3-----|
A-4--4-4------------4------------4--(sim)--2----3-----2-5-------5-4-|
E-2--2-2--2-2-2--2--2--2-2-2--2--2---------0----1-1-4---------------|

Pre-chorus
E-------------------------------------------|
B-------------------------------------------|
G-----------------------------------------3-|
D-7-----------------------4---------------4-|
A-5--5-7-8-7---7----------6---2-----------0-|
E--------------5--5-7-8-7-----0--0-2-3-2----|

Chorus :
E-----------------------------------------------------------------------|
B-----------------------------------------------------------------------|
G-----------------------------------------------------------------------|
D-7----------------------7-8---------------------5-----------/8--7p5h7--|
A-5--5-5-5-5-5-5-5-5-5-5-5---5-5-5-5-5-5-5-5-5-5-5--5-5-5-5-------------|
E-----------------------------------------------------------------------|

E----------------------------------------------------------------------|
B----------------------------------------------------------------------|
G------------------------------------------------6-----------6-6-------|
D-------7---------3---------/2--2-----2--7-5-7-8---8-7-5-7-8-----8-7-5-|
A-5-7-8---8-7-5-3-1--0--5-------0--0--0--------------------------------|
E-----------------------3----------------------------------------------|

E-----------------------------------------------------------------------|
B-----------------------------------------------------------------------|
G-----------------------------------------------------------------------|
D-7----------------------7-8---------------------5-----------/8--7p5h7--|
A-5--5-5-5-5-5-5-5-5-5-5-5---5-5-5-5-5-5-5-5-5-5-5--5-5-5-5-------------|
E-----------------------------------------------------------------------|

E-----------------------------------------------------|
B-----------------------------------------------------|
G-----------------------------------------------------|
D-------7---------3---------/2--2-----2----4---4------|
A-5-7-8---8-7-5-3-1--0--5-------0--0--0----2---2------|
E-----------------------3-----------------------------|

Solo :
E-------------------------------------------------------------------|
B-------13-14-13----------13-16-13----------13-17-13----------13-16-|
G-13-14----------14-13-14----------14-13-14----------14-13-14-------|
D-------------------------------------------------------------------|
A-------------------------------------------------------------------|
E-------------------------------------------------------------------|

E-14-17-14-------------------------------------------------------|
B----------16-13----------13-14-------13-14-13----------13-16-13-|
G----------------14-13-14-------13-14----------14-13-14----------|
D----------------------------------------------------------------|
A----------------------------------------------------------------|
E----------------------------------------------------------------|

E----------------------------------14-17-14----------------------|
B----------13-17-13----------13-16----------16-13----------13-14-|
G-14-13-14----------14-13-14----------------------14-13-14-------|
D----------------------------------------------------------------|
A----------------------------------------------------------------|
E----------------------------------------------------------------|

E-------------------------------------------------------------------|
B-------16-17-16----------16-19-16----------16-20-16----------16-19-|
G-16-17----------17-16-17----------17-16-17----------17-16-17-------|
D-------------------------------------------------------------------|
A-------------------------------------------------------------------|
E-------------------------------------------------------------------|

E-17-20-17-------------------------------------------------------|
B----------19-16----------16-17-------16-17-16----------16-19-16-|
G----------------17-16-17-------16-17----------17-16-17----------|
D----------------------------------------------------------------|
A----------------------------------------------------------------|
E----------------------------------------------------------------|

E----------------------------------17-20-17----------------------|
B----------16-20-16----------16-19----------19-16----------16-17-|
G-17-16-17----------17-16-17----------------------17-16-17-------|
D----------------------------------------------------------------|
A----------------------------------------------------------------|
E----------------------------------------------------------------|

repeat above once
E-10-14-12-14-------------10-14-12-14-------------11-14-12-14-------------|
B-------------------------------------------------------------------------|
G-------------------------------------------------------------------------|
D-------------12-16-14-16-------------12-16-14-16-------------13-16-14-16-|
A-------------------------------------------------------------------------|
E-------------------------------------------------------------------------|

E-11-14-12-14-------------12-15-14-15-------------12-15-14-15-------------|
B-------------------------------------------------------------------------|
G-------------------------------------------------------------------------|
D-------------13-16-14-16-------------14-17-16-17-------------14-17-16-17-|
A-------------------------------------------------------------------------|
E-------------------------------------------------------------------------|

E-14-17-15-17-------------14-17-15-17-------------15-18-17-18--------------|
B--------------------------------------------------------------------------|
G--------------------------------------------------------------------------|
D-------------16-19-17-19-------------16-19-17-19-------------17-20-19-20--|
A--------------------------------------------------------------------------|
E--------------------------------------------------------------------------|

E-15-18-17-18-------------17-20-18-20-------------17-20-18-20-------------|
B-------------------------------------------------------------------------|
G-------------------------------------------------------------------------|
D-------------17-20-19-20-------------19-22-20-22-------------19-22-20-22-|
A-------------------------------------------------------------------------|
E-------------------------------------------------------------------------|

E-18-22-20-22-17-20-18-20-15-18-17-18-15-17-15-17-23-22-20-----------|
B----------------------------------------------------------23-22-20--|
G--------------------------------------------------------------------|
D--------------------------------------------------------------------|
A--------------------------------------------------------------------|
E--------------------------------------------------------------------|

E-----------------------------------------------------------------------------------|
B-19-20-22-20-19-16-----------------------------------------------------------------|
G-------------------19-17-----------------------------------------------------------|
D-------------------------20-19-17-16-17-19-17-16-----------------------------------|
A-------------------------------------------------18-17-15--------------------------|
E----------------------------------------------------------18-17-15-14-15-17-14-15~-|

Bass fill 

E--------------------------------18-15h18p15-------------------------------|
B-----15-------------------------------------16----------------------------|
G--------14-15~--14-12-13b-14~------------------15-------------------------|
D-12-----------------------------------------------17----------------------|
A-----------------------------------------------------18-17-15-17-18-17-15-|
E--------------------------------------------------------------------------|

E----------------------------------------------------------------23-22-20-|
B----------------------------------------------23-22-20-------------------|
G----------------------------20-19-17-------------------20-19-17----------|
D----------20-19-17-------------------20-19-17----------------------------|
A-------------------18-17-15----------------------------------------------|
E-18-17-15----------------------------------------------------------------|

E-----------22-/10-11-10-8-10-11p8----------8-14p11----------11--|
B-23-22-20-------------------------10----10---------13----13-----|
G-------------------------------------11---------------14--------|
D----------------------------------------------------------------|
A----------------------------------------------------------------|
E----------------------------------------------------------------|

E-17p14----------14-20p17----------17------------------------|
B-------16----16----------19----19---------------------------|
G----------17----------------20--------17---15-14------------|
D---------------------------------------------------17---16--|
A------------------------------------------------------------|
E------------------------------------------------------------|

E-----------------------------------------|
B-----------------------------------------|
G-----------------------------------------|
D-17-16-17-19-17-16-----------------------|
A-------------------18-17-15-17-18-15-14~-|
E-----------------------------------------|

Riff during keyboard solo :
E-----------------------------------|
B-----------------------------------|
G-----------------------------------|
D-4--4-4------------4------------4--| repeat
A-2--2-2--2-2-2--2--2--2-2-2--2--2--|
E-----------------------------------|

Solo 2 :
E----------------------------------13-17-13----19-16-------------------|
B----------------------------13-15----------15-------17----------------|
G----------------------10-14----------------------------16-------------|
D----------------10-12-------------------------------------18----------|
A-8---------8-12----------------------------------------------19-14----|
E---10-8-10---------------------------------------------------------16-|

E----------------16-19-16-------------------------8-12-8-----14-11-------|
B-------------17-----------------------------8-10--------10--------12----|
G----------16----------------------------5-9--------------------------11-|
D-------18----------------------------5-7--------------------------------|
A-14-19-------------------3-------3-7------------------------------------|
E---------------------------5-3-5----------------------------------------|

E--------------------------11-14-11-------------------------------------|
B-----------------------12----------------------------------------15-17-|
G--------------------11-------------------------------------12-16-------|
D-13--------------13----------------------------------12-14-------------|
A----14-9----9-14-------------------10----------10-14-------------------|
E---------11---------------------------12-10-12-------------------------|

E-15-19-15----21-18----------------------------------18-21-18-22~--|
B----------17-------19----------------------------19---------------|
G----------------------18----------------------18------------------|
D-------------------------20----------------20---------------------|
A----------------------------21-16----16-21------------------------|
E----------------------------------18------------------------------|

Riff over solos :
E----------------------------------------------------|
B----------------------------------------------------|
G----------------------------------------------------|
D----------------------------------------------------|
A-6------7--4--6--6------7--6------7--4--6--6------7-|
E-4--4-4-5--2--4--4--4-4-5--4--4-4-5--2--4--4--4-4-5-|

E--------------------------------------------------------|
B--------------------------------------------------------|
G--------------------------------------------------------|
D--------------------------------------------------------|
A-9------10-7--9--9------10--9------10-7--9--9------10---|
E-7--7-7-8--5--7--7--7-7-8---7--7-7-8--5--7--7--7-7-8----|

repeat above
E------------------------------------------------------------|
B----------------------------------------------3-------------|
G----------------------------------------------2-------------|
D----------------------------------------------4-------------|
A-9--------------7--------------5----------------------------|
E-7--7-7-7-7-7-7-5--5-5-5-5-5-5-3--3-3-3-3-3-3---2-2-2-2-2-2-|

E--------------------------------------------------------------------------|
B--------------------------------------------------------------------------|
G--------------------------------------------------------------------------|
D-----------------------------------------------------------------0-4--0---|
A-5--------------7--------------8-----------------------0-3--0-------------|
E-3--3-3-3-3-3-3-5--5-5-5-5-5-5-6--6-6-6-6-6-6--8--5-2---------2---------3-|

E-----------------------------------|
B-----------------------------------|
G-----------------------------------|  repeat
D-7--7-7------------7------------7--|
A-5--5-5--5-5-5--5--5--5-5-5--5--5--|
E-----------------------------------|

Riff over solo 2
E--------------------------------------------------------|
B--------------------------------------------------------|
G-----------------------------------------3--------------|
D-7-----------------------4---------------4---4--2-----6-|
A-5--5-7-8-7---7----------6---2-----------0---2--0--5--4-|
E--------------5--5-7-8-7-----0--0-2-3-2------------3----|

 
Chorus
Ending : 
E-----------------------------------------------------------------|
B-----------------------------------------------------------------|
G-----------------------------------------------------------------|
D---------6-----------6------------------------6-----------6------|
A-7-5-7-8---8-7-5-7-8---8-7-8-7-5-7----7-5-7-8---8-7-5-7-8---8-7--|
E-----------------------------------------------------------------|

E-----------------------------------------|
B-----------------------------------------|
G-----------------------------------------|
D---------6-------------------------------|
A-7-5-7-8---8-7-5-7----7-5-7-8-7----2-----|
E-----------------------------------0-----|
comments
We did not receive enough feedback on this tab! Please rate:
print report bad tab
1 2 3 4 5
1 comment total.
0 reply
inki999 wrote on May 4 2013, 04:33 pm

too much mistakes in the intro...

I want to post or [tab]
guest
You may want to rate the tab now too:
select rating
Please do not post tabs as comments. Select "correction" instead!