Oops, an error
Loading. Please wait.

Inferno Tab

ver1
ver1

Intro

Whole song

More versions @911Tabs.com
7,967 views 34 this week
4 commentsread comments
1 2 3 4 5
accurate
x 2
Autoscroll
+/-
esc
set tempo
stop
Contributor
WARNING: You are trying to view
                                    content from Ultimate-Guitar.com
                                    in an unauthorized application,
                                    which is prohibited.

                                    Please use an official Ultimate
                                    Guitar Tabs application for iPhone,
                                    iPad or Android to access legitimate
                                    chords, guitar, bass, and drum tabs
                                    from Ultimate-Guitar.com database.

                                    Type "ultimate guitar tabs" in Apple
                                    App Store's or Android Market's
                                    search to find the application.
Symphony X 
Inferno
Album: The Odyssey
---------------------------------------------------------------------------
			     Inferno - Symphony X
---------------------------------------------------------------------------
Tabbed by:Riqz85
Email:Riqz85@yahoo.com

Tuning:Standard 
Intro
-------------------------------------------------------------
-------------------------------------------------------------
-13-12-10-12-0-0-0-0-10-8-7-0-8-7-5-0----13-12-10-12-0-0-0-0-
-------------------------------------------------------------
-------------------------------------------------------------
-------------------------------------------------------------


-------------------------------------------------------------
-------------------------------------------------------------
-10-8-7-0-8-7-5-0-7-5-4-0---1-0-1-0-0-0-1-0-1-4-1-0-7-5-4-0-1
-------------------------------------------------------------
-------------------------------------------------------------
-------------------------------------------------------------


-------------------------------------------------------------
-------------------------------------------------------------
-0-1-0-0-0-1-0-1-4-1-0---13-12-10-12-0-0-0-0-10-8-7-0-8-7-5-0
-------------------------------------------------------------
-------------------------------------------------------------
-------------------------------------------------------------

					 passe 1
---------------------------------------- --10----------------
---------------------------------------- -----13-12----------
-13-12-10-12-0-0-0-0-10-8-7-0-12-10-8-0- -----------13-12-10-
---------------------------------------- --------------------
---------------------------------------- --------------------
---------------------------------------- --------------------


-16-15-13-11-10----10----------------------------------------
----------------13----13-12----------------------------------
----------------------------13-12-10-13-12-10----------------
----------------------------------------------13-12-10-9----9
---------------------------------------------------------10--
-------------------------------------------------------------

		 
---------------- 
---------------- 
----------10-12- 
-10-12-13------- 
---------------- 
---------------- 



Oo>=-=-==-=-===============\<0>/=================-=-==-=-=<oO


Rythm 1
-------------------------------------------------------------
-------------------------------------------------------------
-13-12-10-12----0-0-0-0-----8-7-5-0----10-8-7-0----12-10-8-0-
-------------------------------------------------------------
-------------------------------------------------------------
-------------------------------------------------------------

                             A1                        
---------------------------- -10---------------- 
---------------------------- ----13-12---------- 
-13-12-10-12----0-0-0-0----- ----------13-12-10- 
---------------------------- ------------------- 
---------------------------- ------------------- 
---------------------------- ------------------- 

*Repeat Rythm 1

B1
-16-15-13--11-10-----10-------------------------
-----------------13------13-12------------------
--------------------------------13-12-10--------
------------------------------------------------
------------------------------------------------
------------------------------------------------

*Repeat Rythm 1 

*A1

*Repeat Rythm 1


Passe 2
--16-15-13-11-10----10----------------------
-----------------13----13-12----------------
-----------------------------13-12-10-13-12-
--------------------------------------------
--------------------------------------------
--------------------------------------------


-------------------------------- 
-------------------------------- 
-10----------------------------- 
----13-12-10-12-10-9------------
---------------------11-10-8-10- 
-------------------------------- 



Oo>=-=-==-=-===============\<0>/=================-=-==-=-=<oO



Punchs
-------------------------------------------------------------
-------------------------------------------------------------
---------3------3-----------------------------------------3--
---------3------3-----6-----2-----4-3-1-------------------3--
-1-1-1-1-1------1-----6-----2------------2-1------1-1-1-1-1--
----------------------4-----0-----------------4--------------


-------------------------------------------------------------
-------------------------------------------------------------
-----------------------3--------3-----3----------------------
--6---4--5-------------3--------3-----3----6----2------------
--6---2--5-----1-1-1-1-1----1-1-1-----1----6----2-----4-2-1--
--4------3---------------------------------4----0-----------4


-------------------------------------------------------------
-------------------------------------------------------------
-------------------------------------------------------------
-------------------------------------------------------------
-1-1-1-1-1----------------2p1-----------1-2-4-5-----slide!---
-------------4-4-4------------4-2-1-2-4----------------------



Oo>=-=-==-=-===============\<0>/=================-=-==-=-=<oO



Main riff (x12) 
-------------------------------------------------------------
-------------------------------------------------------------
-------------------------------------------------------------
-------------------------------------------------------------
------p.a----------------------------------------------------
-0---6bigvib--0----1p0-1p0h1h4-0---6bigvib--0---0-0-0---0-0--


Pre Chorus
-------------------------------------------------------------
-------------------------------------------------------------
-------------------------------------------------------------
-5-------------5h6p5p3h5--5h6p5p3h5--6-5-3-----------7-------
-5-----------------------------------------6-5-3-----7-------
-3-3-3--3-3-3----------------------------------------5-5-5---
                                   
                                  A.
--------------------------------- ---------------------------
--------------------------------- -----------------6-8-------
--------------------------------- -----5--7------8-----------
--------7h8p7p5h7------7h8p7p5h7- --8------------------------
--------------------------------- ---------------------------
-5-5-5--------------------------- ---------------------------


Go Back to Rythm 1



Oo>=-=-==-=-===============\<0>/=================-=-==-=-=<oO



SOLO 1
--------------------------------------16---16p15----15h16----
----9----------9----9h10p9p7p9-------------------------------
--6---6-6----6---6-------------------------------------------
-------------------------------11--11---11-------11----------
-------------------------------------------------------------
-------------------------------------------------------------

---------------------------------------------16b1rp14p13h14-h
------9-----10------8-----8/9--------------------------------
-6-6-----6-----6-6-----6-------------------------------------
-------------------------------------------------------------
-------------------------------------------------------------
-------------------------------------------------------------

-16p14-------------------------------------------------------
-------t15p14---12h14h15-p14-12------------------------------
--------------------------------14p13p11-10h11h13--11p10-----
--------------------------------------------------------12p11
-------------------------------------------------------------
-------------------------------------------------------------

-------------------------------------------------------------
-------------------------------------------------------------
-------------------------------------------------------------
-9h11h12-p11p9-----------------------------------------------
---------------12-p11p9-8h9h11p9p8---------------------------
-----------------------------------10p9p7h9Big VIB----7b5drop



Oo>=-=-==-=-===============\<0>/=================-=-==-=-=<oO



Main riff x8

Pre Chorus Without A. (go to B.)

B.
-----------------------------------
-----------------------------------
-----------------------------------
-8---7---5--------------chorus-----
--------------8-7-5-----.....------
-----------------------------------


Chorus (x2)
-------------------------------------------------------------
-------------------------------------------------------------
----------------------6-----------------------------------5--
-3--------------------6-----------------------------------5--
-3--------------------4--4-4-4--4-4-4--4-4-4--4-4-4--4-4--3--
-1--1-1-1--1-1-1--1-1----------------------------------------

-------------------------------------------------------------
-------------------------------------------------------------
-------------------------------------------------------------
-----------------3---------------------------5----6----------
-3-3-3--3--------3---------------------------6----6----------
-----------4--3--1--1-1-1--1-1-1--1-1-1--1-1-3----4----4-4-4-


-------------------------------------------------------------
-------------------------------------------------------------
----------3-----------------------------------5--------------
----------3-----------------------------------5--------------
----------1--1-1-1--1-1-1--1-1-1--1-1-1--1-1--3--3-3-3--3-3-3
4-4-4--4-4---------------------------------------------------

	     Box 1                              Box 2 
------------ ---------------------------------  -----5-------
------------ ---------------------------------  -----5-------
------------ 6-5-3----------------------------  -----7-------
------------ ------6-5-3-5-3-2----------------  -----7------- 
-3-3-3--3-3- ------------------4-3-1----------  -----5-------
------------ ------------------------4-3-1-0--  -------------


Go back to Rythm 1


Oo>=-=-==-=-===============\<0>/=================-=-==-=-=<oO



Interlude
-------------------------------------------------------------
-------------------------------------------------------------
-------------------------------------------------------------
---------------------------------------------3---------------
-3---3-5-6----------------1----3---3-5-6---6-----------------
--------------1---1-3-4--------------------------6---4-------


-------------------------------------------------------------
-------------------------------------------------------------
-------------------------------------------------------------
---------------------------------------------3---------------
-3---3-5-6----------------1----3---3-5-6---6-----------------
--------------1---1-3-4-------------------------3---4--3h4-1-




Oo>=-=-==-=-===============\<0>/=================-=-==-=-=<oO




SOLO 2 (romeo style!)
-------------------------------------------------------------
------------------------------------------11-13-t17-13-11----
-------------------------------------------------------------
-t17-14-t17-14-10-t18-14-t18-14-10-14-t17-----------------t17
-------------------------------------------------------------
-------------------------------------------------------------


----------------------15-18-20-18-15----------------15-18-21-
-------------------------------------------------------------
-------------15-17-21----------------21-17-15-17-21----------
-14----------------------------------------------------------
----15-19-22-------------------------------------------------
-------------------------------------------------------------

18-15-----------12-15-18-15-12-------------------------------
-------------------------------------------------------------
-----21-18-15-12--------------18-15-12--------------12-15-18-
-------------------------------------------------------------
--------------------------------------19-15-13-15-19---------
-------------------------------------------------------------


-------------------------------------------------12-15-18-15-
------------------------------------------------------------- 
-15-12--------------------12-15-18-15-12---------------------
------------------------------------------------------------- 
------------------------------------------------------------- 
-------12-15-18-12-15-18-----------------12-15-18------------

                                              
12---------------------------------------------------/16/----
------------------------------------11b2--8-11---------------
-----------12-15-18-15-12-----------------------11b1---------
--------------------------pre bend---------------------------
--------------------------8b2-drop---------------------------
--12-15-18---------------------------------------------------

prebend
17b3 drop--/16-13--------------------------------------------
------------------14-----------------------------------------
---------------------13-12-----------------------------------
----------------------------10h11p10p8-10big vib-------------
-------------------------------------------------------------
-------------------------------------------------------------




Oo>=-=-==-=-===============\<0>/=================-=-==-=-=<oO



Keyboard Solo Riff (x4)     Box 1   
--------------------------- ---------------------------------
--------------------------- ---------------------------------
--------------------------- ---------------------------------
------7-------------------- -7-------------------------------
--6-------6---6p4h6h7p6p4-6 -----6----6-6-6---6-6-6----------
--------------------------- ---------------------------------

Box 2 (4th take)
---------------------------
---------------------------
---------------------------
--------------------slide--
--4------6p4--3------------
---------------------------

Back To Chorus...



Oo>=-=-==-=-===============\<0>/=================-=-==-=-=<oO


Go to Rythm 1 (Do B1 instead of Passe 1)

Then..

END
----------------------13-10----------------------------------
----------------------------12-------------------------------
-13-12-10-0-10-8-7-0-----------13-10-----13-12-10-0-10-8-7-0-
-------------------------------------12----------------------
-------------------------------------------------------------
-------------------------------------------------------------

-16-11-------------------------------------------------------
-------15----------------------------------------------------
----------16-11----13-12-10-0-12-10-8-0-10-8-7-0-8-7-6-0-7-5-
---------------15--------------------------------------------
-------------------------------------------------------------
-------------------------------------------------------------

-------------------------------------------------------------
-------------------------------------------------------------
-4---------6-----------(-6/4/7)------------------------------
---6-5-3---6-----------(------)-----etc----------------------
---------6-4-----------(-4/2/6)------------------------------
-------------------------------------------------------------


| /  slide up
| \  slide down
| h  hammer-on
| p  pull-off
| ~  vibrato
| +  harmonic
| x  Mute note
=========================================================================
thx to www.symphonyx.com
and thx to Pierre-Olivier Merizzi
write complaints to riqz85@yahoo.com
comments
We did not receive enough feedback on this tab! Please rate:
print report bad tab
1 2 3 4 5
4 comments total. Showing first comments.
0 reply
Riqz85 wrote on April 24 2004, 12:00 am

thx man for the good comment :))

0 reply
dOwnstOnE wrote on May 6 2005, 12:00 am

This is in DGCFAd, not standard. Finish the song while your at it!

0 reply
madderdaddy2 wrote on October 24 2005, 05:24 pm

Decent tab. (take the latters advice)

I want to post or [tab]
guest
You may want to rate the tab now too:
select rating
Please do not post tabs as comments. Select "correction" instead!