Oops, an error
Loading. Please wait.

Inferno Tab

ver2
ver2

Intro

Whole song

More versions @911Tabs.com
3,670 views 1 this week
no commentswrite comment
1 2 3 4 5
worth learning
x 3
Autoscroll
+/-
esc
set tempo
stop
Contributor
Difficulty
advanced
NEW! There's an official Ultimate Guitar app which is ideal
for learning songs when you're away from computer. Get the app
WARNING: You are trying to view
                                    content from Ultimate-Guitar.com
                                    in an unauthorized application,
                                    which is prohibited.

                                    Please use an official Ultimate
                                    Guitar Tabs application for iPhone,
                                    iPad or Android to access legitimate
                                    chords, guitar, bass, and drum tabs
                                    from Ultimate-Guitar.com database.

                                    Type "ultimate guitar tabs" in Apple
                                    App Store's or Android Market's
                                    search to find the application.
tabbed by:harold macaraeg
email: hapiharold106@yahoo.com

Symphony x
inferno

Tuning: D G C F A D

intro:

 p.m-----------------------------------------------------------------------------------|
|-------------------------------------|---------------------------------------------|--|
|-------------------------------------|---------------------------------------------|--|
|13-12-10-12-0-0-0-0-8-7-5-0-10-8-7-0-|13-12-10-12-0-0-0-0-8-7-5-0-10-8-7-0-7-5-4-0-|--|
|-------------------------------------|---------------------------------------------|--|
|-------------------------------------|---------------------------------------------|--|
|-------------------------------------|---------------------------------------------|--|

 p.m-------------------------------------------------------------------|
|--------------------------------|-------------------|-----------------|
|--------------------------------|-------------------|-----------------|
|1-0-1-0-0-0-1-0-1-4-1-0-7-5-4-0-|1-0-1-0-0-0-1-4-1-0|-----------------|
|--------------------------------|-------------------|-----------------|
|--------------------------------|-------------------|-----------------|
|--------------------------------|-------------------|-----------------|

 p.m--------------------------------------------------------------------------|
|------------------------------------|------------------------------------|---|
|------------------------------------|------------------------------------|---|
|13-12-10-12-0-0-0-0-8-7-5-0-10-8-7-0|13-12-10-12-0-0-0-0-8-7-5-0-10-8-7-0|---|
|------------------------------------|------------------------------------|---|
|------------------------------------|------------------------------------|---|
|------------------------------------|------------------------------------|---|

 p.m-------------------------------------------------------------------------------------|
|------------------------------------|-----------------16-15-13--------------------------|
|------------------------------------|-15-13-12----------------16-15-13------------------|
|13-12-10-12-0-0-0-0-8-7-5-0-10-8-7-5|---------13-12-10----------------15-13-12----------|
|------------------------------------|-----------------------------------------13-12-10--|
|------------------------------------|---------------------------------------------------|
|------------------------------------|---------------------------------------------------|

|----------------------------------|-------|
|----------------------------------|-------|
|13-12-10-------------------8-10-12|-------|
|--------13-12-10-9--9-10-12-------|-------|
|------------------10--------------|-------|
|----------------------------------|-------|

FIG 01
 p.m----------------------------------------------------------------------------------|
|--------------------------------------------|-------------------------------------|--|
|--------------------------------------------|-------------------15-13-12----------|--|
|13-12-10-12-0-0-0-0-7-5-4-0-8-7-5-0-10-8-7-0|13-12-10-12-0-0-0-0--------13-12-10--|--|
|--------------------------------------------|-------------------------------------|--|
|--------------------------------------------|-------------------------------------|--|
|--------------------------------------------|-------------------------------------|--|

 p.m------------------------------------------------------------------------------------------------|
|--------------------------------------------|-------------------16-15-13---------------------------|
|--------------------------------------------|---------------------------16-15-13-15-13-12----------|
|13-12-10-12-0-0-0-0-7-5-4-0-8-7-5-0-10-8-7-0|13-12-10-12-0-0-0-0-------------------------13-12-10--|
|--------------------------------------------|------------------------------------------------------|
|--------------------------------------------|------------------------------------------------------|
|--------------------------------------------|------------------------------------------------------|

 p.m----------------------------------------------------------------------------------|
|--------------------------------------------|-------------------------------------|--|
|--------------------------------------------|-------------------15-13-12----------|--|
|13-12-10-12-0-0-0-0-7-5-4-0-8-7-5-0-10-8-7-0|13-12-10-12-0-0-0-0--------13-12-10--|--|
|--------------------------------------------|-------------------------------------|--|
|--------------------------------------------|-------------------------------------|--|
|--------------------------------------------|-------------------------------------|--|

 p.m-------------------------------------------------------------------------------------------------------------------------------------|
|--------------------------------------------|-------------------16-15-13----------------------------------------------------------------|
|--------------------------------------------|---------------------------16-15-13-15-13-12-----------------------------------------------|
|13-12-10-12-0-0-0-0-7-5-4-0-8-7-5-0-10-8-7-0|13-12-10-12-0-0-0-0-------------------------13-12-10-13-12-10------------------------------|
|--------------------------------------------|-------------------------------------------------------------13-12-10-12-10-9--------------|
|--------------------------------------------|-----------------------------------------------------------------------------11-10-8-10*~--|
|--------------------------------------------|-------------------------------------------------------------------------------------------|


FIG 02                                p.m--------------------------------------|
|------------------------------------------------|--------------------------|--|
|------------------------------------------------|--------------------------|--|
|---------------------------------9--------------|--------------------------|--|
|----------------------8----6-----9--------------|---------------6----9---5-|--|
|-8-8-8-8-8------------8----6-----7----9-8-6-5---|--8-8-8-8-8----6----9---5-|--|
|-6-6-6-6-6------------6----4-----7-----------7-4|--6-6-6-6-6----4----7---3-|--|

                                                               p.m
|-----------------------------------|----------------------------------------------|
|-----------------------------------|----------------------------------------------|
|---------------------------------9-|----------------------------------------------|
|----------------------8----6-----9-|----------------------------------------------|
|-8-8-8-8-8----8-8-8---8----6-----7-|-8-8-8-8-8---6-6-6---1h2p1---------1-2-4-5----|
|-6-6-6-6-6----6-6-6---6----4-----7-|-6-6-6-6-6---4-4-4--------4-2-1-2-4-----------|


FIG 03
                                p.m-----------------------------------|
|-------------------------------------------|-------------------------|
|-------------------------------------------|-------------------------|
|-------------------------------------------|-------------------------|
|-------------------------------------------|-sim---------------------|
|----2*-------------------2*----2-2-2---2-2-|-------------------------|
|-0---0--1p0h1p0h1h4---0----0--0-0-0---0-0-|--------------------------|

                                p.m------------------------------------|
|-------------------------------------------|--------------------------|
|-------------------------------------------|--------------------------|
|-------------------------------------------|--------------------------|
|-------------------------------------------|--------------------------|
|----2*-------------------2*----2-2---2---2-|--------------------------|
|-0---0--1p0h1p0h1h4---0----0--0-0---0---0-|---------------------------|


BRIDGE 01
 p.m----------|                              p.m------------------------------------------------|
|-------------------------------------------|---------------------------------------------------|
|-------------------------------------------|---------------------------------------------------|
|-------------------------------------------|----------------------------------------7-8-10-12--|
|---------------5h6p5p3--6p5p3h5--6-5-3-----|--------------7h8p7p5h7--7h8p7p5h7--8-10-----------|
|-5------------------------------------6-5-3|-7-------------------------------------------------|
|-3-3-3-3-3-3-3-----------------------------|-5-5-5-5-5-5---------------------------------------|

FIG 01

 p.m-----------------------------------------------------------------------------------------------------------------------------------|
|--------------------------------------------|-------------------------------------|---------------------------------------------------|
|--------------------------------------------|-------------------15-13-12----------|---------------------------------------------------|
|13-12-10-12-0-0-0-0-7-5-4-0-8-7-5-0-10-8-7-0|13-12-10-12-0-0-0-0--------13-12-10--|---------------------------------------------------|
|--------------------------------------------|-------------------------------------|---------------------------------------------------|
|--------------------------------------------|-------------------------------------|---------------------------------------------------|
|--------------------------------------------|-------------------------------------|---------------------------------------------------|
 p.m-----------------------------------------------------------------------------------------------------------------------------------|
|--------------------------------------------|-------------------16-15-13--------------------------------------------------------------|
|--------------------------------------------|---------------------------16-15-13-15-13-12---------------------------------------------|
|13-12-10-12-0-0-0-0-7-5-4-0-8-7-5-0-10-8-7-0|13-12-10-12-0-0-0-0-------------------------13-12-10-------------------------------------|
|--------------------------------------------|-----------------------------------------------------------------------------------------|
|--------------------------------------------|-----------------------------------------------------------------------------------------|
|--------------------------------------------|-----------------------------------------------------------------------------------------|
 p.m-----------------------------------------------------------------------------------------------------------------------------------|
|--------------------------------------------|-------------------------------------|---------------------------------------------------|
|--------------------------------------------|-------------------15-13-12----------|---------------------------------------------------|
|13-12-10-12-0-0-0-0-7-5-4-0-8-7-5-0-10-8-7-0|13-12-10-12-0-0-0-0--------13-12-10--|---------------------------------------------------|
|--------------------------------------------|-------------------------------------|---------------------------------------------------|
|--------------------------------------------|-------------------------------------|---------------------------------------------------|
|--------------------------------------------|-------------------------------------|---------------------------------------------------|
 p.m-----------------------------------------------------------------------------------------------------------------------------------|
|--------------------------------------------|-------------------16-15-13--------------------------------------------------------------|
|--------------------------------------------|---------------------------16-15-13-15-13-12---------------------------------------------|
|13-12-10-12-0-0-0-0-7-5-4-0-8-7-5-0-10-8-7-0|13-12-10-12-0-0-0-0-------------------------13-12-10-13-12-10----------------------------|
|--------------------------------------------|-------------------------------------------------------------13-12-10-12-10-9------------|
|--------------------------------------------|-----------------------------------------------------------------------------11-10-8-10--|
|--------------------------------------------|-----------------------------------------------------------------------------------------|

SOLO 01                                              p.m  p.m     p.m     p.m--|   p.m   p.m------------------|   p.m
|-------------------------------------------------------16---16/15---1516-------------------------------------|
|-------------------------------------------------------------------------------------------------------------|
|----------13----------------13----13h14p13p11h13--------------------------------13---14--------13----13-14~--|
|-11----------11----11----11----11----------------11--11---11------11------11-11----11----11-11----11---------|
|-------------------------------------------------------------------------------------------------------------|
|-------------------------------------------------------------------------------------------------------------|

|/16p14p13h14h16p14p13-------------------------------------------------------------------------------------------|
|---------------------15p14p12h14h15p14p12-----------------------------------------------------------------------|
|-----------------------------------------13p11p10h11h13p11p10---------------------------------------------------|
|-------------------------------------------------------------12p11p9h11h12p11p9---------------------------------|
|-------------------------------------------------------------------------------11p9p8h9h11p9p8------------------|
|----------------------------------------------------------------------------------------------10p9p7--9*--wbar--|


FIG 04
                                p.m-----------------------------------|
|-------------------------------------------|-------------------------|
|-------------------------------------------|-------------------------|
|-------------------------------------------|-------------------------|
|-------------------------------------------|-sim---------------------|
|----2*-------------------2*----2-2-2---2-2-|-------------------------|
|-0---0--1p0h1p0h1h4---0----0--0-0-0---0-0-|--------------------------|

                                p.m------------------------------------|
|------------------------------|-------------|-------------------------|
|------------------------------|-------------|-------------------------|
|------------------------------|-------------|-------------------------|
|------------------------------|-------------|-------------------------|
|----2*-------------------2*---|-2-2-2---2-2-|-------------------------|
|-0---0--1p0h1p0h1h4---0----0-|-0-0-0---0-0-|--------------------------|

BRIDGE 02

 p.m---------|                               p.m--------------------------------------------|
|-------------------------------------------|-----------------------------------------------|
|-------------------------------------------|-----------------------------------------------|
|-------------------------------------------|-----------------------------------------------|
|-------------5h6p5p3--5h6p5p3h5--6-5-3-----|--------------7h8p7p5h7-7h8p7p5h7--8-7-5-------|
|-5------------------------------------6-5-3|-7--------------------------------------8-7-5--|
|-3-3-3-3-3-3-------------------------------|-5-5-5-5-5-5-----------------------------------|

CHORUS
 p.m-----------------------------------------------------------------|
|--------------------------------------------------------------------|
|--------------------------------------------------------------------|
|--------------------------------------------------------------------|
|------------------6-----6-----6-----6-----6-----5-----5-----5-------|
|3-----3-----3-----4-4-4-4-4-4-4-4-4-4-4-4-4-4-4-3-3-3-3-3-3-3-3-3---|
|1-1-1-1-1-1-1-1-1---------------------------------------------------|

 p.m--------------------|   p.m------------------------------------------------------------------------|
|---------------------------------------------------------------------------------------------------|--|
|---------------------------------------------------------------------------------------------------|--|
|---------------------------------------------------------------------------------------------------|--|
|---------------------------------------------3-----3-----3-----3-----3-----5-----5-----5-----5-----|--|
|3-----3-----3-----3-----5--6-----6-----6-----1-1-1-1-1-1-1-1-1-1-1-1-1-1-1-3-3-3-3-3-3-3-3-3-3-3-3-|--|
|1-1-1-1-1-1-1-1-1-1-1-1-3--4-4-4-4-4-4-4-4-4-------------------------------------------------------|--|

 p.m---------------------------------------------------------------|
|------------------------------------------------------------------|
|------------------------------------------------------------------|
|6-5-3-------------------------------------------------------------|
|-----6-5-3-5-3-2--------------------------------------------------|
|----------------4-3-1---------------------------------------------|
|----------------------4-3-1-0-------------------------------------|

 p.m-----------------------------------------------------------------|
|--------------------------------------------------------------------|
|--------------------------------------------------------------------|
|--------------------------------------------------------------------|
|------------------6-----6-----6-----6-----6-----5-----5-----5-------|
|3-----3-----3-----4-4-4-4-4-4-4-4-4-4-4-4-4-4-4-3-3-3-3-3-3-3-3-3---|
|1-1-1-1-1-1-1-1-1---------------------------------------------------|

 p.m---------------------  p.m--------------------------------------------------------------------------------|
|----------------------------------------------------------------------------------------------------------|--|
|----------------------------------------------------------------------------------------------------------|--|
|---------------------------------------------------------------------------------------------------7------|--|
|---------------------------------------------3-----3-----3-----3-----3-----5-----5-----5-----5-----7------|--|
|3-----3-----3-----3-----5--6-----6-----6-----1-1-1-1-1-1-1-1-1-1-1-1-1-1-1-3-3-3-3-3-3-3-3-3-3-3-3-5------|--|
|1-1-1-1-1-1-1-1-1-1-1-1-3--4-4-4-4-4-4-4-4-4--------------------------------------------------------------|--|

FIG 01

 p.m----------------------------------------------------------------------------------|
|--------------------------------------------|-------------------------------------|--|
|--------------------------------------------|-------------------15-13-12----------|--|
|13-12-10-12-0-0-0-0-7-5-4-0-8-7-5-0-10-8-7-0|13-12-10-12-0-0-0-0--------13-12-10--|--|
|--------------------------------------------|-------------------------------------|--|
|--------------------------------------------|-------------------------------------|--|
|--------------------------------------------|-------------------------------------|--|

 p.m------------------------------------------------------------------------------------------------|
|--------------------------------------------|-------------------16-15-13---------------------------|
|--------------------------------------------|---------------------------16-15-13-15-13-12----------|
|13-12-10-12-0-0-0-0-7-5-4-0-8-7-5-0-10-8-7-0|13-12-10-12-0-0-0-0-------------------------13-12-10--|
|--------------------------------------------|------------------------------------------------------|
|--------------------------------------------|------------------------------------------------------|
|--------------------------------------------|------------------------------------------------------|

 p.m----------------------------------------------------------------------------------|
|--------------------------------------------|-------------------------------------|--|
|--------------------------------------------|-------------------15-13-12----------|--|
|13-12-10-12-0-0-0-0-7-5-4-0-8-7-5-0-10-8-7-0|13-12-10-12-0-0-0-0--------13-12-10--|--|
|--------------------------------------------|-------------------------------------|--|
|--------------------------------------------|-------------------------------------|--|
|--------------------------------------------|-------------------------------------|--|

 p.m-----------------------------------------------------------------------------------------------------------------------------------|
|--------------------------------------------|-------------------16-15-13--------------------------------------------------------------|
|--------------------------------------------|---------------------------16-15-13-15-13-12---------------------------------------------|
|13-12-10-12-0-0-0-0-7-5-4-0-8-7-5-0-10-8-7-0|13-12-10-12-0-0-0-0-------------------------13-12-10-13-12-10----------------------------|
|--------------------------------------------|-------------------------------------------------------------13-12-10-12-10-9------------|
|--------------------------------------------|-----------------------------------------------------------------------------11-10-8-10--|
|--------------------------------------------|-----------------------------------------------------------------------------------------|


|-------------------------------------------------------------|------|
|-------------------------------------------------------------|------|
|-------------------------------------------------------------|------|
|-------------------------------------------------------------|------|
|-3----5-6------------------1--3----5-6--6/8------------------|------|
|-----------------1---1-3-4-------------------6--4------------|------|

|-------------------------------------------------------------|-------|
|-------------------------------------------------------------|-------|
|-------------------------------------------------------------|-------|
|-------------------------------------------------------------|-------|
|-3----5-6------------------1--3----5-6--6/8------------------|-------|
|-----------------1---1-3-4-------------------3--4---------3-1|-------|


SOLO 02
|-------------------------------------------------------------------------------|
|-----------------------------------------------------t-------------------------|
|----------------------------------------------15h17-21p17p15-------------------|
|---------t-----t-----------t-----t---------------------------t--------------t--|
|/-15h19-22p19-22p19p15h19-23p19-23p19p15h19h22--------------22p19p15h17h19-22--|
|-------------------------------------------------------------------------------|

                t                        t                              t
|--------15h18-20p18p15-----------15h18-21p18p15-----------------12h15-18p15p12-|--|
|-------t---------------t------------------------t--------------t---------------|--|
|15h17-21--------------21p17p15h17--------------21p17p1512h15-18---------------|---|
|-------------------------------------------------------------------------------|--|
|-------------------------------------------------------------------------------|--|
|-------------------------------------------------------------------------------|--|
                                                                           t
|-------------------------------------------------------------------12h15-18---------------------|
|-t----------------------------t---------------------------t-------------------------------t-----|
|18p15p12h--------------12h15-18p15p12--------------12h15-18------------------------12h15-18h12--|
|----------t-----------t---------------t-----------t---------------t---------------t-------------|
|---------19p16p13h16-19--------------19p16p13h16-19--------13h16-19--------13h16-19-------------|
|------------------------------------------------------------------------------------------------|


|----------------------------------------16----------/20-------20-------------------------------|----|
|--------------------------------------------------/--------------------------------------------|----|
|w/bar----/17------12h15---11w/bar12------------/----------------15----------------------------|-----|
|-------/------------------------/-----------------------------------18-17------10h11p10p8h10*--|----|
|-----/------------------------/-----------------------------------------------------------------|---|
|-------------------------------------------------------------------------------------------------|--|

KEYBOARD SOLO
|-------------------------------------|-------|
|-------------------------------------|-------|
|-------------------------------------|-------|
|---7---------------7-----------------|-------|
|-6---6---6P4H6P4H6---6----6-6-6--6-6-|--sim--|
|-------------------------------------|-------|

|-------------------------------------|------------------------------|
|-------------------------------------|------------------------------|
|-------------------------------------|------------------------------|
|-------------------------------------|------------------------------|
|--6-----4------3---------------------|------------------------------|
|-------------------------------------|------------------------------|

CHORUS
 p.m-----------------------------------------------------------------|
|--------------------------------------------------------------------|
|--------------------------------------------------------------------|
|--------------------------------------------------------------------|
|------------------6-----6-----6-----6-----6-----5-----5-----5-------|
|3-----3-----3-----4-4-4-4-4-4-4-4-4-4-4-4-4-4-4-3-3-3-3-3-3-3-3-3---|
|1-1-1-1-1-1-1-1-1---------------------------------------------------|

 p.m--------------------|   p.m------------------------------------------------------------------------|
|---------------------------------------------------------------------------------------------------|--|
|---------------------------------------------------------------------------------------------------|--|
|---------------------------------------------------------------------------------------------------|--|
|---------------------------------------------3-----3-----3-----3-----3-----5-----5-----5-----5-----|--|
|3-----3-----3-----3-----5--6-----6-----6-----1-1-1-1-1-1-1-1-1-1-1-1-1-1-1-3-3-3-3-3-3-3-3-3-3-3-3-|--|
|1-1-1-1-1-1-1-1-1-1-1-1-3--4-4-4-4-4-4-4-4-4-------------------------------------------------------|--|
 p.m---------------------------------------------------------------------------------------------------|
|-------------------------------|----------------------------------------------------------------------|
|-------------------------------|----------------------------------------------------------------------|
|6-5-3--------------------------|----------------------------------------------------------------------|
|-----6-5-3-5-3-2---------------|----------------------------------------------------------------------|
|----------------4-3-1----------|----------------------------------------------------------------------|
|----------------------4-3-1-0--|----------------------------------------------------------------------|

FIG 01
 p.m----------------------------------------------------------------------------------|
|--------------------------------------------|-------------------------------------|--|
|--------------------------------------------|-------------------15-13-12----------|--|
|13-12-10-12-0-0-0-0-7-5-4-0-8-7-5-0-10-8-7-0|13-12-10-12-0-0-0-0--------13-12-10--|--|
|--------------------------------------------|-------------------------------------|--|
|--------------------------------------------|-------------------------------------|--|
|--------------------------------------------|-------------------------------------|--|

 p.m------------------------------------------------------------------------------------------------|
|--------------------------------------------|-------------------16-15-13---------------------------|
|--------------------------------------------|---------------------------16-15-13-15-13-12----------|
|13-12-10-12-0-0-0-0-7-5-4-0-8-7-5-0-10-8-7-0|13-12-10-12-0-0-0-0-------------------------13-12-10--|
|--------------------------------------------|------------------------------------------------------|
|--------------------------------------------|------------------------------------------------------|
|--------------------------------------------|------------------------------------------------------|

 p.m----------------------------------------------------------------------------------|
|--------------------------------------------|-------------------------------------|--|
|--------------------------------------------|-------------------15-13-12----------|--|
|13-12-10-12-0-0-0-0-7-5-4-0-8-7-5-0-10-8-7-0|13-12-10-12-0-0-0-0--------13-12-10--|--|
|--------------------------------------------|-------------------------------------|--|
|--------------------------------------------|-------------------------------------|--|
|--------------------------------------------|-------------------------------------|--|

 p.m-----------------------------------------------------------------------------------------------------------------------------|
|--------------------------------------------|-------------------16-15-13--------------------------------------------------------|
|--------------------------------------------|---------------------------16-15-13-15-13-12---------------------------------------|
|13-12-10-12-0-0-0-0-7-5-4-0-8-7-5-0-10-8-7-0|13-12-10-12-0-0-0-0-------------------------13-12-10---13-12-10-0-----12-10-8-0-0--|
|--------------------------------------------|-----------------------------------------------------------------------------------|
|--------------------------------------------|-----------------------------------------------------------------------------------|
|--------------------------------------------|-----------------------------------------------------------------------------------|

|13P10----------------------------------16P13----------|-----------|
|-----12-------------------------------------15--------|-----------|
|-------13P10-----13-12-10-0--12-10-8-0--------16P13---|-----------|
|------------12-------------------------------------15-|-----------|
|------------------------------------------------------|-----------|
|------------------------------------------------------|-----------|

 p.m-------------------------------------------------------------------|
|-------------------------------------------------------------------|--|
|-------------------------------------------------------------------|--|
|-13-12-10-0--12-10-8-0--10-8-7-0--8-7-5-0--7-5-4-------------------|--|
|------------------------------------------------6-5-3----3---------|--|
|-----------------------------------------------------6-5-4---------|--|
|-------------------------------------------------------------------|--|


------------------------
         / : slide
          h : hammer
          p : pull-off
          b : bend
         br : bend and release
          ~ : vibrato
         pm : palm muting
          * : artificial harmonic
comments
We did not receive enough feedback on this tab! Please rate:
print report bad tab
1 2 3 4 5
I want to post or [tab]
guest
You may want to rate the tab now too:
select rating
Please do not post tabs as comments. Select "correction" instead!