Oops, an error
Loading. Please wait.

King Of Terrors Tab

ver1
ver1

Whole song

Interactive

More versions @911Tabs.com
1,604 views 2 this week
no commentswrite comment
1 2 3 4 5
accurate
x 2
Autoscroll
+/-
esc
set tempo
stop
Contributor
NEW! There's an official Ultimate Guitar app which is ideal
for learning songs when you're away from computer. Get the app
WARNING: You are trying to view
                                    content from Ultimate-Guitar.com
                                    in an unauthorized application,
                                    which is prohibited.

                                    Please use an official Ultimate
                                    Guitar Tabs application for iPhone,
                                    iPad or Android to access legitimate
                                    chords, guitar, bass, and drum tabs
                                    from Ultimate-Guitar.com database.

                                    Type "ultimate guitar tabs" in Apple
                                    App Store's or Android Market's
                                    search to find the application.
Intro (x2)
---------------------------------------------------------|
---------------------------------------------------------|
---------------------------------------------------------|
-5/4----5/4----5/4--------------------------5/4----5/4---|
-5/4----5/4----5/4--------------------------5/4----5/4---|
-3/2----3/2----3/2---0-3-2--0-3-2--0-3-2----3/2----3/2---|


----------------------------------------|
----------------------------------------|
----------------------------------------|
-5/4------------------------------------|
-5/4------------------------------------|
-3/2---0-3-2--0-3-2--3p0h3h8p3/2p0h3----|


Riff 1
----------------------------------------|
----------------------------------------|
----------------------------------------|
-5/4----5/4----5/4----5/4---------------|
-5/4----5/4----5/4----5/4------slide----|
-3/2----3/2----3/2----3/2---------------|

Repeat Intro (x4)

Riff 1



Rythm 1 (x2)
---------------------------------------------------------|
---------------------------------------------------------|
----------------------I=====I----------------I=========I-|
---------------------------------------------------------|
-5-4---5-4----5-4-----5-4-5-4----5-4---5-4---5-4-5-4-5-4-|
-3/2---3/2----3/2-----3/2-3/2----3/2---3/2---3/2-3/2-3/2-|


---------------------------------------------------------|
---------------------------------------------------------|
---------------------------------------------------------|
---------------------------------------------------------|
--5-4----5-4-----5-4-------------------------------------|
--3/2----3/2-----3/2-------------------------------------|


Passe 1                         A.       B.(2nd take)
------------------------------- -------- ----------------|
------------------------------- -------- ----------------|
-------------3----------------- -------- ----------------|
----------------2---5-----2---- -------- ----------------|
----------4------------4-----1- -------- ---p.a----------|
-0----3------------------------ -3-2-1-- ----3-----------|


Rythm 2 (x2)
---------------------------------------------------------|
---------------------------------------------------------|
----------------------I=====I----------------I=========I-|
---------------------------------------------------------|
-4-3---4-3----4-3-----4-3-4-3----4-3---4-3---4-3-4-3-4-3-|
-2/1---2/1----2/1-----2/1-2/1----2/1---2/1---2/1-2/1-2/1-|

                                      Box 1
------------------------------------- -------------------|
------------------------------------- -------------------|
----------------I=====I-------------- -------I=========I-|
------------------------------------- -------------------|
-4-3---4-3------4-3-4-3-----4-3------ --4-3--4-3-4-3-4-3-|
-2/1---2/1------2/1-2/1-----2/1------ --2/1--2/1-2/1-2/1-|

                                      Box 2
------------------------------------- -------------------|
----------------Heavy mute----------- ---Heavy mute------|
------------------------------------- -------------------|
----------------4-4-4-4-------------- -------------------|
-4-3---4-3------2-2-2-2-------------- ---3-3-3-3---------|
-2/1---2/1------2-2-2-2-------------- ---1-1-1-1---------|



Prechorus
--6--------7--------6--------7--7------------------------|
--6--------7--------6--------7--7------------------------|
--8--------9--------8--------9--9------------------------|
--8--------9--------8--------9--9------------------------|
--6--------7--------6--------7--7------------------------|
--6--------7--------6--------7--7------------------------|


Chorus (x2)          a.            b.
-------------------- ------------- ----------------------|
-------------------- ------------- ----------------------|
----4------------4-- -8-9--------- --8---6-6-------------|
--6-4---3-7----6-4-- -9-9--------- --8---6-6-------------|
--6-2---4-7----6-2-- -6-7---7-9-7- --6---4-4-------------|
--4-----1-5----4---- ------------- ----------------------|

Rythm 1 only once  + Passe 1 + B.

Rythm 2

*Prechorus

*Chorus (x2)



Interlude

1. (x2)
--9-------8-----------12--11------10---------------------|
--10------10----------10--10------10---------------------|
--11------11----------11--11------11---------------------|
---------------------------------------------------------|
---------------------------------------------------------|
---------------------------------------------------------|

2. (x4)
---------------------------------------------------------|
---------------------------------------------------------|
---------------------------------------------------------|
-----------------4-5-----------------------4-5-----------|
-----------------2/3-----------------------2/3-----------|
-5-2-5-2-2-5-2-2-----5-2---5--2-2-2--5-2-2---------------|


Fill
---------------------------------------------------------|
---------------------------------------------------------|
----------------------x2---------------------------------|
--------------------piano--------------------------------|
--------------------simile-------------------------------|
-5-2-5-2-2-5-2-4-1---------5-2-5-2-2-5-2-4-1---5-2-5-2-2-|


---------------------------------------------------------|
---------------------------------------------------------|
---------------------------------------------------------|
---------------------------------------------------------|
----------2-5-4---3---2----------------------------------|
5-2-4-1---------5---4----1-------------------------------|


Order for next part : 3 3 4 3 3 4 4
(Last part one octave higher)

3.                          4.
--------------------------- ------------------------------|
--------------------------- ------------------------------|
--------------------------- ------------------------------|
--------------------------- ------------------------------|
--------------------------- --2-5-4---3---2--opt----------|
-5-2-5-2-2-5-2-4-1--------- --------5---4----1------------|

Play part 3. eight times ( synth solo)



Riff 2  (x2)                      Break
--------------------------------- ----------------------------|
--------------------------------- ----------------------------|
------------------------------7-- -6-6--6-6---------------4-6-|
-6-4--6-5----6-4---------6-5--7-- -6-6--6-6-------3--4-6-7----|
-4-2--6-5----4-2---------6-5--5-- -4-4--4-4--4--5-------------|
------4-3--------2-1-2-5-4-3----- ----------------------------|

3.
----------------------------------------------------------|
-t6-3-2-0---t6-3-2-0---t10-3-2-0---t9-3-2-0---t7-3-2-0----|
----------------------------------------------------------|
----------------------------------------------------------|
----------------------------------------------------------|
----------------------------------------------------------|

4.
----------------------------------------------------------|
----------------------------------------------------------|
-t18p16-t18p16p14-----t16p14-t16p14p13--t14p13t14p13p11---|
----------------------------------------------------------|
----------------------------------------------------------|
----------------------------------------------------------|
----------------------------------------------------------|

----------------------------------------------------------|
----------------------------------------------------------|
-t13p11t13p11p10----repeat 4.-------7-------SOLO!!--------|
-----------------one octave-lower---7---------------------|
------------------------------------5---------------------|
----------------------------------------------------------|



SOLO
-----------------------------------------------------------|
-----------------------------------2-5-2-------2-5-2-5-2---|
(4b2)r1----4--2---4b2----------2-5-------5-2-5-----------5-|
------------------------4----------------------------------|
-----------------------------------------------------------|
-----------------------------------------------------------|


-----------------------------------------------------------|
-----2-5p2-------2-5p2-5p2-------2-5p2-------2-5p2-5p2-----|
-2-5-------5-2-5-----------5-2-5-------5-2-5-----------2-5-|
-----------------------------------------------------------|
-----------------------------------------------------------|
-----------------------------------------------------------|


---------------5---5-7-4-5-7-9-5-7-9-10-9-7---------7-9-10-|
-2-5p2-5p2h5/7---7--------------------------10-9-10--------|
-----------------------------------------------------------|
-----------------------------------------------------------|
-----------------------------------------------------------|
-----------------------------------------------------------|


13-p9-----/12p10p9h10h12p10p9-----------------------------|
-------------------------------12p10h12p10--11h13p11p9--9-|
------------------------------------------------------11--|
----------------------------------------------------------|
----------------------------------------------------------|
----------------------------------------------------------|


----------------------------------------------------------|
----10----------------------------------------------------|
-11----12p11p9--------------------------7h9t13p9p7--------|
---------------11h14p12h14p12-----------------------------|
------------------------------14--9p7h9------------9p7h9--|
----------------------------------------------------------|


-----------------------------------------------------------|
-----------------------------------------------------------|
--7h9t13p9t13p9p7--------7h9t13p9p7--------7h9t13p9t13p9p7-|
-----------------------------------------------------------|
-------------------9p7h9-------------9p7h9-----------------|
-----------------------------------------------------------|


----------------------------------------------------------|
-------------------------------9h11t15p11p9---------------|
--------7h9t13p9p7h9------------------------t14p10p8h10---|
-----------------------8h10t14----------------------------|
-9p7h9----------------------------------------------------|
----------------------------------------------------------|


-------------------------12h15h17t21p17p15t20p16p14p11----|
-11h14h16t20p16p14p11f14-------------------------------12-|
----------------------------------------------------------|
----------------------------------------------------------|
----------------------------------------------------------|
----------------------------------------------------------|


----12h15h17t21p17p15---t22p18p16p13-------14h17t22p20p17-|
-11----------------------------------14-12----------------|
----------------------------------------------------------|
----------------------------------------------------------|
----------------------------------------------------------|
----------------------------------------------------------|


-t24p20p18p15--24b2-----17-13-----------------------------|
------------------------------14-----------------/13...---|
-(21b2)--------------------------14-----------------------|
------------------------------------15--------------------|
---------------------------------------16-12-15-----------|
----------------------------------------------------------|




Rythm 3 (x3)                                           Box1
------------------------------------------------------ -------|
------------------------------------------------------ -------|
===I--------------------I=====I--------------------I== ====---|
------------------------------------------------------ -------|
-4/3-----4/3----4/3-----4/3-4/3-----4/3-----4/3----4/3 4/3----|
-2/1-----2/1----2/1-----2/1-2/1-----2/1-----2/1----2/1 2/1----|


Box 2 (3nd take)
----------- -----------------------------------------------|
----------- -----------------------------------------------|
--3 time--- -----------------------------------------------|
----------- -----------------6-8-9-8-6---------------------|
-4-----4-3- --4-----------6------------9-8-6---------------|
-2-1-1-2-1- --2-1-1-4-6-7--------------------9-7-6---------|

Chorus again

End
comments
We did not receive enough feedback on this tab! Please rate:
print report bad tab
1 2 3 4 5
I want to post or [tab]
guest
You may want to rate the tab now too:
select rating
Please do not post tabs as comments. Select "correction" instead!