Oops, an error
Loading. Please wait.

Add Tab

ver6
ver6
More versions @911Tabs.com
243 views 1 this week
1 commentread comment
1 2 3 4 5
please rate
Autoscroll
+/-
esc
set tempo
stop
Contributor
Difficulty
Tuning
intermediate
C G C F A D
NEW! There's an official Ultimate Guitar app which is ideal
for learning songs when you're away from computer. Get the app
WARNING: You are trying to view
                                    content from Ultimate-Guitar.com
                                    in an unauthorized application,
                                    which is prohibited.

                                    Please use an official Ultimate
                                    Guitar Tabs application for iPhone,
                                    iPad or Android to access legitimate
                                    chords, guitar, bass, and drum tabs
                                    from Ultimate-Guitar.com database.

                                    Type "ultimate guitar tabs" in Apple
                                    App Store's or Android Market's
                                    search to find the application.
Song: A.D.D
Artist: System of a Down
Guitarist: Daron Malakian

1 Guitar
Tuning: Drop C (C,G,C,F,A,D)

The BPM is actually in between 233 and 234.
I would practice on a 234 but there is no consistant tempo.

Intro Riff II
                       |--3--|   
  Q   E  E  E  Q   E   E  E  E  E  Q   Q   E
D-10--10-10-10-10--10-|10h11p10-10-10--10--10-|
A---------------------|-----------------------|
F---------------------|-----------------------|
C---------------------|-----------------------|
G---------------------|-----------------------|
C---------------------|-----------------------|

                       |--3--|   
  Q   E  E  E  Q   E   E  E  E  E  Q   Q   E
D-10--10-10-10-10--10-|10h11p10-10-10--10--10-|
A---------------------|-----------------------|
F---------------------|-----------------------|
C---------------------|-----------------------|
G---------------------|-----------------------|
C---------------------|-----------------------|

  |--3--|                 |--3--|   
  E  E  E  E  Q   E       E  E  E  E  Q   Q   E
D-10h11p10-10-10--10--10-|10h11p10-10-10--10--10-|
A------------------------|-----------------------|
F------------------------|-----------------------|
C------------------------|-----------------------|
G------------------------|-----------------------|
C------------------------|-----------------------|

  |--3--|                  |---3---| 
  E  E  E  E  Q   Q   E    E+  e 
D-10h11p10-10-10--10--10-|(10h)11-----------------|
A------------------------|------------------------|
F------------------------|------------------------|
C------------------------|------------------------|
G------------------------|------------------------|
C------------------------|------------------------|

Intro Riff II

  Q   E  E  E  E  E  E  Q     E  E  E  E  E  E  Q
D--------------------------|-----------------------|
A--------------------------|-----------------------|
F-7---------------------7--|--------------------7--|
C-x---------------------x--|--------------------x--|
G-5---0--0--0--0--0--0--5--|--0--0--0--0--0--0--5--|
C-0---0--0--0--0--0--0--0--|--0--0--0--0--0--0--0--|


    E  E  E  E  E  E  Q     E  E  E  E  E  E  Q
D------------------------|-----------------------|
A------------------------|-----------------------|
F---------------------7--|-----------5--7--8--7--|
C---------------------x--|-----------x--x--x--x--|
G---0--0--0--0--0--0--5--|--0--0--0--3--5--6--5--|
C---0--0--0--0--0--0--0--|--0--0--0--0--0--0--0--|


    E  E  E  E  E  E  Q     E  E  E  E  E  E  Q
D------------------------|-----------------------|
A------------------------|-----------------------|
F---------------------7--|--------------------7--|
C---------------------x--|--------------------x--|
G---0--0--0--0--0--0--5--|--0--0--0--0--0--0--5--|
C---0--0--0--0--0--0--0--|--0--0--0--0--0--0--0--|


    E  E  E  E  E  E  Q     E  E  E  E  E  E  Q
D------------------------|-----------------------|
A------------------------|-----------------------|
F---------------------7--|-----------5--7--8--7--|
C---------------------x--|-----------x--x--x--x--|
G---0--0--0--0--0--0--5--|--0--0--0--3--5--6--5--|
C---0--0--0--0--0--0--0--|--0--0--0--0--0--0--0--|


    E  E  E  E  E  E  Q     E  E  E  E  E  E  Q
D------------------------|-----------------------|
A------------------------|-----------------------|
F------------7--------7--|-----------7--------7--|
C------------x--------x--|-----------x--------x--|
G------------5--------5--|-----------5--------5--|
C---0--0--0--0--0--0--0--|--0--0--0--0--0--0--0--|
    *  *  *     *  *        *  *  *     *  *

    E  E  E  E  E  E  Q     E  E  E  E  E  E  Q
D------------------------|-----------------------|
A------------------------|-----------------------|
F------------7--------7--|-----------5--7--8--7--|
C------------x--------x--|-----------x--x--x--x--|
G------------5--------5--|-----------3--5--6--5--|
C---0--0--0--0--0--0--0--|--0--0--0--0--0--0--0--|
    *  *  *     *  *        *  *  *

    E  E  E  E  E  E  Q     E  E  E  E  E  E  Q
D------------------------|-----------------------|
A------------------------|-----------------------|
F------------7--------7--|-----------7--------7--|
C------------x--------x--|-----------x--------x--|
G------------5--------5--|-----------5--------5--|
C---0--0--0--0--0--0--0--|--0--0--0--0--0--0--0--|
    *  *  *     *  *        *  *  *     *  *

    E  E  E  E  E  E  Q     E  E  E  E  E  E
D------------------------|--------------------|
A------------------------|--------------------|
F------------7--------7--|-----------5--7--8--|
C------------x--------x--|-----------x--x--x--|
G------------5--------5--|-----------3--5--6--|
C---0--0--0--0--0--0--0--|--0--0--0--0--0--0--|
    *  *  *     *  *        *  *  *

Pre-Verse Riff

  Q.    Q   E E E Q.   E Q   E E E Q.   E E   E E E Q.   E Q   E E E Q. 
D------------------|----------------|----------------|-----------------|
A------------------|----------------|----------------|-----------------|
F------------------|----------------|----------------|-----------------|
C-1-----1---1-1-1-7|---7-7---7-7-7-0|---0-0---0-0-0-6|---6-6---6-6-6-11|
G-1-----1---1-1-1-7|---7-7---7-7-7-0|---0-0---0-0-0-6|---6-6---6-6-6-11|
C-1-----1---1-1-1-7|---7-7---7-7-7-0|---0-0---0-0-0-6|---6-6---6-6-6-11|


    E  Q    E  E  E  Q.   E Q   E E E E
D---------------------|-----------------|
A---------------------|-----------------|
F---------------------|-----------------|
C---11-11---11-11-11-5|---5-5---5-5-5-5-|
G---11-11---11-11-11-5|---5-5---5-5-5-5-|
C---11-11---11-11-11-5|---5-5---5-5-5-5-|


Verse I

  E E E E E E E E  E E E E E E E E  E E E E E E E E  E E E E E E E E 
D-----------------|----------------|----------------|----------------|
A-----------------|----------------|----------------|----------------|
F-----------------|----------------|----------------|----------------|
C-----------------|----------------|----------------|----------------|
G-----------------|----------------|----------------|----------------|
C-0-0-0-0-0-0-0-0-|0-0-0-0-0-0-0-0-|0-0-0-0-0-0-0-0-|0-0-0-0-0-0-0-0-|
  * * * * * * * *  * * * * * * * *  * * * * * * * *  * * * * * * * *

  E E E E E E E E  E E E E E E E E  E E E E E E E E  E E E E E
D-----------------|----------------|----------------|----------------|
A-----------------|----------------|----------------|----------------|
F-----------------|----------------|----------------|----------------|
C-----------------|----------------|----------------|----------------|
G-----------------|----------------|----------------|----------------|
C-0-0-0-0-0-0-0-0-|0-0-0-0-0-0-0-0-|0-0-0-0-0-0-0-0-|0-0-0-0-0-------|
  * * * * * * * *  * * * * * * * *  * * * * * * * *  * * * * *

  E  E  E  E  E  E  E  E  E  E  E  E  E  E  E  E  E  E  E  E  E  E  E  E  
D------------------------|-----------------------|-----------------------|
A------------------------|-----------------------|-----------------------|
F-------10-10-10-10-10-10|10-10-10-10-10-10-10-10|10-10-9--9--9--9--9--9-|
C-------x--x--x--x--x--x-|x--x--x--x--x--x--x--x-|x--x--x--x--x--x--x--x-|
G-------8--8--8--8--8--8-|8--8--8--8--8--8--8--8-|8--8--7--7--7--7--7--7-|
C-0--0--0--0--0--0--0--0-|0--0--0--0--0--0--0--0-|0--0--0--0--0--0--0--0-|
  *  *  *  *  *  *  *  *  *  *  *  *  *  *  *  *  *  *  *  *  *  *  *  *
(PM THE C STRING ONLY)
                                
  E  E  E  E  E  E  E  E  E  E  E  E  E  E  E  E  E  E  E  E  E  E  E  E
D------------------------|-----------------------|-----------------------|
A------------------------|-----------------------|-----------------------|
F-9--9--9--9--9--9--9--9-|9--9--12-12-12-12-12-12|12-12-12-12-12-12-12-12|
C-x--x--x--x--x--x--x--x-|x--x--x--x--x--x--x--x-|x--x--x--x--x--x--x--x-|
G-7--7--7--7--7--7--7--7-|7--7--10-10-10-10-10-10|10-10-10-10-10-10-10-10|
C-0--0--0--0--0--0--0--0-|0--0--0--0--0--0--0--0-|0--0--0--0--0--0--0--0-|
  *  *  *  *  *  *  *  *  *  *  *  *  *  *  *  *  *  *  *  *  *  *  *  *
(PM THE C STRING ONLY)
                                                     
  E  E  E  E  E  E  E  E  E  E  E  E  E  E  E  E  E  E  E  E  E  E  E  E  
D------------------------|-----------------------|-----------------------|
A------------------------|-----------------------|-----------------------|
F-12-12-10-10-10-10-10-10|10-10-10-10-10-10-10-10|10-10-14-14-14-14-14-14|
C-x--x--x--x--x--x--x--x-|x--x--x--x--x--x--x--x-|x--x--x--x--x--x--x--x-|
G-10-10-8--8--8--8--8--8-|8--8--8--8--8--8--8--8-|8--8--12-12-12-12-12-12|
C-0--0--0--0--0--0--0--0-|0--0--0--0--0--0--0--0-|0--0--0--0--0--0--0--0-|
  *  *  *  *  *  *  *  *  *  *  *  *  *  *  *  *  *  *  *  *  *  *  *  *
(PM THE C STRING ONLY)


  E  E  E  E  E  E  E  E  E  E  E  E  E  E  E  E  E  E  E  E  E  E  E  E
D------------------------|-----------------------|-----------------------|
A------------------------|-----------------------|-----------------------|
F-14-14-14-14-14-14-14-14|14-14-12-12-12-12-12-12|12-12-12-12-12-12-12-12|
C-x--x--x--x--x--x--x--x-|x--x--x--x--x--x--x--x-|x--x--x--x--x--x--x--x-|
G-12-12-12-12-12-12-12-12|12-12-10-10-10-10-10-10|10-10-10-10-10-10-10-10|
C-0--0--0--0--0--0--0--0-|0--0--0--0--0--0--0--0-|0--0--0--0--0--0--0--0-|
  *  *  *  *  *  *  *  *  *  *  *  *  *  *  *  *  *  *  *  *  *  *  *  *
(PM THE C STRING ONLY)

        
  E  E  E  E  E  E  E  E  E  E  E  E  E  E  E  E  E  E  E  E  E  E  E  E  
D------------------------|-----------------------|-----------------------|
A------------------------|-----------------------|-----------------------|
F-12-12-15-15-15-15-15-15|15-15-15-15-15-15-15-15|15-15-14-14-14-14-14-14|
C-x--x--x--x--x--x--x--x-|x--x--x--x--x--x--x--x-|x--x--x--x--x--x--x--x-|
G-10-10-13-13-13-13-13-13|13-13-13-13-13-13-13-13|13-13-12-12-12-12-12-12|
C-0--0--0--0--0--0--0--0-|0--0--0--0--0--0--0--0-|0--0--0--0--0--0--0--0-|
  *  *  *  *  *  *  *  *  *  *  *  *  *  *  *  *  *  *  *  *  *  *  *  *
(PM THE C STRING ONLY)


  E  E  E  E  E  E  E
D---------------------|
A---------------------|
F-14-14-14-14-14-14-14|
C-x--x--x--x--x--x--x-|
G-12-12-12-12-12-12-12|
C-0--0--0--0--0--0--0-|
  *  *  *  *  *  *  *
(PM THE C STRING ONLY)

Pre-Chorus I

    Q    E  E  E  E  E  E     Q    E  E  E  E  E  E
D-------------------------|---------------------------|
A-----------------14h15p14|-----------------14h15p15--|
F-------------------------|---------------------------|
C---12---12-12-12---------|---12---12-12-12-----------|
G-------------------------|---------------------------|
C-------------------------|---------------------------|


    Q    E  E  E  E  E  E     Q    E  E  E  E  E  E
D-------------------------|---------------------------|
A-----------------14h15p14|-----------------14h15p15--|
F-------------------------|---------------------------|
C---12---12-12-12---------|---12---12-12-12-----------|
G-------------------------|---------------------------|
C-------------------------|---------------------------|


    Q    E  E  E  E  E  E     Q    E  E  E  E  E  E
D-------------------------|---------------------------|
A-----------------14h15p14|-----------------14h15p15--|
F-------------------------|---------------------------|
C---12---12-12-12---------|---12---12-12-12-----------|
G-------------------------|---------------------------|
C-------------------------|---------------------------|


    Q    E  E  E  E  E  E     Q    E  E  E  E  E  E
D-------------------------|---------------------------|
A---14---14-14-14-14-14-14|---14---14-14-14-14-14-14--|
F-------------------------|---------------------------|
C-------------------------|---------------------------|
G-------------------------|---------------------------|
C-------------------------|---------------------------|

Chorus I

  Q.    Q   E E E Q.   E Q   E E E Q.   E E   E E E Q.   E Q   E E E Q. 
D------------------|----------------|----------------|-----------------|
A------------------|----------------|----------------|-----------------|
F------------------|----------------|----------------|-----------------|
C-1-----1---1-1-1-7|---7-7---7-7-7-0|---0-0---0-0-0-6|---6-6---6-6-6-11|
G-1-----1---1-1-1-7|---7-7---7-7-7-0|---0-0---0-0-0-6|---6-6---6-6-6-11|
C-1-----1---1-1-1-7|---7-7---7-7-7-0|---0-0---0-0-0-6|---6-6---6-6-6-11|


    E  Q    E  E  E  Q.   E Q   E E E E
D---------------------|-------------------|
A---------------------|-------------------|
F---------------------|-------------------|
C---11-11---11-11-11-5|---5-5---5-5-5-----|
G---11-11---11-11-11-5|---5-5---5-5-5-*5*-|
C---11-11---11-11-11-5|---5-5---5-5-5-----|

Right now...
    Q    E E E  Q.    Q    E E E 
D-----------------|--------------|
A-----------------|--------------|
F-----------------|--------------|
C--------------*5*|--------------|
G---0----0-0-0----|---0----0-0-0-|
C---0----0-0-0----|---0----0-0-0-|
    *    * * *        *    * * *
We don't give a fuck...
  Q.    Q   E E E Q.   E Q   E E E Q.   E E   E E E Q.   E Q   E E E Q. 
D------------------|----------------|----------------|-----------------|
A------------------|----------------|----------------|-----------------|
F------------------|----------------|----------------|-----------------|
C-1-----1---1-1-1-7|---7-7---7-7-7-0|---0-0---0-0-0-6|---6-6---6-6-6-11|
G-1-----1---1-1-1-7|---7-7---7-7-7-0|---0-0---0-0-0-6|---6-6---6-6-6-11|
C-1-----1---1-1-1-7|---7-7---7-7-7-0|---0-0---0-0-0-6|---6-6---6-6-6-11|


    E  Q    E  E  E  Q.   E Q   E E E E
D---------------------|-----------------|
A---------------------|-----------------|
F---------------------|-----------------|
C---11-11---11-11-11-5|---5-5---5-5-5-5-|
G---11-11---11-11-11-5|---5-5---5-5-5-5-|
C---11-11---11-11-11-5|---5-5---5-5-5-5-|

Verse II

Right now...

   E E E E E E E E  E E E E E E E E  E E E E E E E E  E E E E E E E E 
D-----------------|----------------|----------------|----------------|
A-----------------|----------------|----------------|----------------|
F-----------------|----------------|----------------|----------------|
C-----------------|----------------|----------------|----------------|
G-----------------|----------------|----------------|----------------|
C-0-0-0-0-0-0-0-0-|0-0-0-0-0-0-0-0-|0-0-0-0-0-0-0-0-|0-0-0-0-0-0-0-0-|
  * * * * * * * *  * * * * * * * *  * * * * * * * *  * * * * * * * *

Their is no flag...
  E  E  E  E  E  E  E  E  E  E  E  E  E  E  E  E  E  E  E  E  E  E  E  E  
D------------------------|-----------------------|-----------------------|
A------------------------|-----------------------|-----------------------|
F-------10-10-10-10-10-10|10-10-10-10-10-10-10-10|10-10-9--9--9--9--9--9-|
C-------x--x--x--x--x--x-|x--x--x--x--x--x--x--x-|x--x--x--x--x--x--x--x-|
G-------8--8--8--8--8--8-|8--8--8--8--8--8--8--8-|8--8--7--7--7--7--7--7-|
C-0--0--0--0--0--0--0--0-|0--0--0--0--0--0--0--0-|0--0--0--0--0--0--0--0-|
  *  *  *  *  *  *  *  *  *  *  *  *  *  *  *  *  *  *  *  *  *  *  *  *
(PM THE C STRING ONLY)
                                
  E  E  E  E  E  E  E  E  E  E  E  E  E  E  E  E  E  E  E  E  E  E  E  E
D------------------------|-----------------------|-----------------------|
A------------------------|-----------------------|-----------------------|
F-9--9--9--9--9--9--9--9-|9--9--12-12-12-12-12-12|12-12-12-12-12-12-12-12|
C-x--x--x--x--x--x--x--x-|x--x--x--x--x--x--x--x-|x--x--x--x--x--x--x--x-|
G-7--7--7--7--7--7--7--7-|7--7--10-10-10-10-10-10|10-10-10-10-10-10-10-10|
C-0--0--0--0--0--0--0--0-|0--0--0--0--0--0--0--0-|0--0--0--0--0--0--0--0-|
  *  *  *  *  *  *  *  *  *  *  *  *  *  *  *  *  *  *  *  *  *  *  *  *
(PM THE C STRING ONLY)
                                                     
  E  E  E  E  E  E  E  E  E  E  E  E  E  E  E  E  E  E  E  E  E  E  E  E  
D------------------------|-----------------------|-----------------------|
A------------------------|-----------------------|-----------------------|
F-12-12-10-10-10-10-10-10|10-10-10-10-10-10-10-10|10-10-14-14-14-14-14-14|
C-x--x--x--x--x--x--x--x-|x--x--x--x--x--x--x--x-|x--x--x--x--x--x--x--x-|
G-10-10-8--8--8--8--8--8-|8--8--8--8--8--8--8--8-|8--8--12-12-12-12-12-12|
C-0--0--0--0--0--0--0--0-|0--0--0--0--0--0--0--0-|0--0--0--0--0--0--0--0-|
  *  *  *  *  *  *  *  *  *  *  *  *  *  *  *  *  *  *  *  *  *  *  *  *
(PM THE C STRING ONLY)


  E  E  E  E  E  E  E  E  E  E  E  E  E  E  E  E  E  E  E  E  E  E  E  E
D------------------------|-----------------------|-----------------------|
A------------------------|-----------------------|-----------------------|
F-14-14-14-14-14-14-14-14|14-14-12-12-12-12-12-12|12-12-12-12-12-12-12-12|
C-x--x--x--x--x--x--x--x-|x--x--x--x--x--x--x--x-|x--x--x--x--x--x--x--x-|
G-12-12-12-12-12-12-12-12|12-12-10-10-10-10-10-10|10-10-10-10-10-10-10-10|
C-0--0--0--0--0--0--0--0-|0--0--0--0--0--0--0--0-|0--0--0--0--0--0--0--0-|
  *  *  *  *  *  *  *  *  *  *  *  *  *  *  *  *  *  *  *  *  *  *  *  *
(PM THE C STRING ONLY)

        
  E  E  E  E  E  E  E  E  E  E  E  E  E  E  E  E  E  E  E  E  E  E  E  E  
D------------------------|-----------------------|-----------------------|
A------------------------|-----------------------|-----------------------|
F-12-12-15-15-15-15-15-15|15-15-15-15-15-15-15-15|15-15-14-14-14-14-14-14|
C-x--x--x--x--x--x--x--x-|x--x--x--x--x--x--x--x-|x--x--x--x--x--x--x--x-|
G-10-10-13-13-13-13-13-13|13-13-13-13-13-13-13-13|13-13-12-12-12-12-12-12|
C-0--0--0--0--0--0--0--0-|0--0--0--0--0--0--0--0-|0--0--0--0--0--0--0--0-|
  *  *  *  *  *  *  *  *  *  *  *  *  *  *  *  *  *  *  *  *  *  *  *  *
(PM THE C STRING ONLY)


  E  E  E  E  E  E  E
D---------------------|
A---------------------|
F-14-14-14-14-14-14-14|
C-x--x--x--x--x--x--x-|
G-12-12-12-12-12-12-12|
C-0--0--0--0--0--0--0-|
  *  *  *  *  *  *  *
(PM THE C STRING ONLY)

Pre-Chorus II

    Q    E  E  E  E  E  E     Q    E  E  E  E  E  E
D-------------------------|---------------------------|
A-----------------14h15p14|-----------------14h15p14--|
F-------------------------|---------------------------|
C---12---12-12-12---------|---12---12-12-12-----------|
G-------------------------|---------------------------|
C-------------------------|---------------------------|


    Q    E  E  E  E  E  E     Q    E  E  E  E  E  E
D-------------------------|---------------------------|
A-----------------14h15p14|-----------------14h15p14--|
F-------------------------|---------------------------|
C---12---12-12-12---------|---12---12-12-12-----------|
G-------------------------|---------------------------|
C-------------------------|---------------------------|


    Q    E  E  E  E  E  E     Q    E  E  E  E  E  E
D-------------------------|---------------------------|
A-----------------14h15p14|-----------------14h15p14--|
F-------------------------|---------------------------|
C---12---12-12-12---------|---12---12-12-12-----------|
G-------------------------|---------------------------|
C-------------------------|---------------------------|


    Q    E  E  E  E  E  E     Q    E  E  E  E  E  E
D-------------------------|---------------------------|
A---14---14-14-14-14-14-14|---14---14-14-14-14-14-14--|
F-------------------------|---------------------------|
C-------------------------|---------------------------|
G-------------------------|---------------------------|
C-------------------------|---------------------------|

Chorus II

  Q.    Q   E E E Q.   E Q   E E E Q.   E E   E E E Q.   E Q   E E E Q. 
D------------------|----------------|----------------|-----------------|
A------------------|----------------|----------------|-----------------|
F------------------|----------------|----------------|-----------------|
C-1-----1---1-1-1-7|---7-7---7-7-7-0|---0-0---0-0-0-6|---6-6---6-6-6-11|
G-1-----1---1-1-1-7|---7-7---7-7-7-0|---0-0---0-0-0-6|---6-6---6-6-6-11|
C-1-----1---1-1-1-7|---7-7---7-7-7-0|---0-0---0-0-0-6|---6-6---6-6-6-11|


    E  Q    E  E  E  Q.   E Q   E E E E
D---------------------|-------------------|
A---------------------|-------------------|
F---------------------|-------------------|
C---11-11---11-11-11-5|---5-5---5-5-5-----|
G---11-11---11-11-11-5|---5-5---5-5-5-*5*-|
C---11-11---11-11-11-5|---5-5---5-5-5-----|

Right now...
    Q    E E E  Q.    Q    E E E 
D-----------------|--------------|
A-----------------|--------------|
F-----------------|--------------|
C--------------*5*|--------------|
G---0----0-0-0----|---0----0-0-0-|
C---0----0-0-0----|---0----0-0-0-|
    *    * * *        *    * * *
We don't give a fuck...
  Q.    Q   E E E Q.   E Q   E E E Q.   E E   E E E Q.   E Q   E E E Q. 
D------------------|----------------|----------------|-----------------|
A------------------|----------------|----------------|-----------------|
F------------------|----------------|----------------|-----------------|
C-1-----1---1-1-1-7|---7-7---7-7-7-0|---0-0---0-0-0-6|---6-6---6-6-6-11|
G-1-----1---1-1-1-7|---7-7---7-7-7-0|---0-0---0-0-0-6|---6-6---6-6-6-11|
C-1-----1---1-1-1-7|---7-7---7-7-7-0|---0-0---0-0-0-6|---6-6---6-6-6-11|


    E  Q    E  E  E  Q.   E Q   E E E E
D---------------------|-----------------|
A---------------------|-----------------|
F---------------------|-----------------|
C---11-11---11-11-11-5|---5-5---5-5-5-5-|
G---11-11---11-11-11-5|---5-5---5-5-5-5-|
C---11-11---11-11-11-5|---5-5---5-5-5-5-|

Interlude

Right now...
   W      W     W     W     W     W     W     W
D------|-----|-----|-----|-----|-----|-----|-----|
A------|-----|-----|-----|-----|-----|-----|-----|
F------|-----|-----|-----|-----|-----|-----|-----|
C------|-*5*-|-----|-*5*-|-----|-*5*-|-----|-*5*-|
G-*5*--|-----|-*5*-|-----|-*5*-|-----|-*5*-|-----|
C------|-----|-----|-----|-----|-----|-----|-----|

Bridge Riff I

  Q   E  E  E  E  E  E  Q     E  E  E  E  E  E  Q
D--------------------------|-----------------------|
A--------------------------|-----------------------|
F-7---------------------7--|--------------------7--|
C-x---------------------x--|--------------------x--|
G-5---0--0--0--0--0--0--5--|--0--0--0--0--0--0--5--|
C-0---0--0--0--0--0--0--0--|--0--0--0--0--0--0--0--|


    E  E  E  E  E  E  Q     E  E  E  E  E  E  Q
D------------------------|-----------------------|
A------------------------|-----------------------|
F---------------------7--|-----------5--7--8--7--|
C---------------------x--|-----------x--x--x--x--|
G---0--0--0--0--0--0--5--|--0--0--0--3--5--6--5--|
C---0--0--0--0--0--0--0--|--0--0--0--0--0--0--0--|


    E  E  E  E  E  E  Q     E  E  E  E  E  E  Q
D------------------------|-----------------------|
A------------------------|-----------------------|
F---------------------7--|--------------------7--|
C---------------------x--|--------------------x--|
G---0--0--0--0--0--0--5--|--0--0--0--0--0--0--5--|
C---0--0--0--0--0--0--0--|--0--0--0--0--0--0--0--|


    E  E  E  E  E  E  Q     E  E  E  E  E  E  Q
D------------------------|-----------------------|
A------------------------|-----------------------|
F---------------------7--|-----------5--7--8--7--|
C---------------------x--|-----------x--x--x--x--|
G---0--0--0--0--0--0--5--|--0--0--0--3--5--6--5--|
C---0--0--0--0--0--0--0--|--0--0--0--0--0--0--0--|


    E  E  E  E  E  E  Q     E  E  E  E  E  E  Q
D------------------------|-----------------------|
A------------------------|-----------------------|
F------------7--------7--|-----------7--------7--|
C------------x--------x--|-----------x--------x--|
G------------5--------5--|-----------5--------5--|
C---0--0--0--0--0--0--0--|--0--0--0--0--0--0--0--|
    *  *  *     *  *        *  *  *     *  *

    E  E  E  E  E  E  Q     E  E  E  E  E  E  Q
D------------------------|-----------------------|
A------------------------|-----------------------|
F------------7--------7--|-----------5--7--8--7--|
C------------x--------x--|-----------x--x--x--x--|
G------------5--------5--|-----------3--5--6--5--|
C---0--0--0--0--0--0--0--|--0--0--0--0--0--0--0--|
    *  *  *     *  *        *  *  *

    E  E  E  E  E  E  Q     E  E  E  E  E  E  Q
D------------------------|-----------------------|
A------------------------|-----------------------|
F------------7--------7--|-----------7--------7--|
C------------x--------x--|-----------x--------x--|
G------------5--------5--|-----------5--------5--|
C---0--0--0--0--0--0--0--|--0--0--0--0--0--0--0--|
    *  *  *     *  *        *  *  *     *  *

    E  E  E  E  E  E  Q     E  E  E  E  E  Q
D------------------------|--------------------|
A------------------------|--------------------|
F------------7--------7--|-----------5--7--8--|
C------------x--------x--|-----------x--x--x--|
G------------5--------5--|-----------3--5--6--|
C---0--0--0--0--0--0--0--|--0--0--0--0--0--0--|
    *  *  *     *  *        *  *  *

Bridge Riff II

  E  E  E  E  E  E  E  E  E  E  E  E  E  E  E  E  E  E  E  E  E  E  E  E  
D------------------------|-----------------------|-----------------------|
A------------------------|-----------------------|-----------------------|
F-10-10-10-10-10-10-10-10|10-10-10-10-10-10-10-10|10-10-9--9--9--9--9--9-|
C-x--x--x--x--x--x--x--x-|x--x--x--x--x--x--x--x-|x--x--x--x--x--x--x--x-|
G-8--8--8--8--8--8--8--8-|8--8--8--8--8--8--8--8-|8--8--7--7--7--7--7--7-|
C------------------------|-----------------------|-----------------------|
                                
  E  E  E  E  E  E  E  E  E  E  E  E  E  E  E  E  E  E  E  E  E  E  E  E
D------------------------|-----------------------|-----------------------|
A------------------------|-----------------------|-----------------------|
F-9--9--9--9--9--9--9--9-|9--9--12-12-12-12-12-12|12-12-12-12-12-12-12-12|
C-x--x--x--x--x--x--x--x-|x--x--x--x--x--x--x--x-|x--x--x--x--x--x--x--x-|
G-7--7--7--7--7--7--7--7-|7--7--10-10-10-10-10-10|10-10-10-10-10-10-10-10|
C------------------------|-----------------------|-----------------------|
                                                    
  E  E  E  E  E  E  E  E  E  E  E  E  E  E  E  E  E  E  E  E  E  E  E  E  
D------------------------|-----------------------|-----------------------|
A------------------------|-----------------------|-----------------------|
F-12-12-10-10-10-10-10-10|10-10-10-10-10-10-10-10|10-10-14-14-14-14-14-14|
C-x--x--x--x--x--x--x--x-|x--x--x--x--x--x--x--x-|x--x--x--x--x--x--x--x-|
G-10-10-8--8--8--8--8--8-|8--8--8--8--8--8--8--8-|8--8--12-12-12-12-12-12|
C------------------------|-----------------------|0--------0--0--0--0----|
                                                  *        *  *  *  *
The notes played on the bottom string are the rhythm of another guitar, but 
since this is system of a down, THEY HAVE NO OTHER GUITAR. Daron Dubbed 
himself. I didn't want to write another guitar part so I just kinda put it 
underneath. If you can play it, then just palm mute the C sring.

  E  E  E  E  E  E  E  E  E  E  E  E  E  E  E  E  E  E  E  E  E  E  E  E
D------------------------|-----------------------|-----------------------|
A------------------------|-----------------------|-----------------------|
F-14-14-14-14-14-14-14-14|14-14-12-12-12-12-12-12|12-12-12-12-12-12-12-12|
C-x--x--x--x--x--x--x--x-|x--x--x--x--x--x--x--x-|x--x--x--x--x--x--x--x-|
G-12-12-12-12-12-12-12-12|12-12-10-10-10-10-10-10|10-10-10-10-10-10-10-10|
C-0--------0--0-----0----|0--------0--0--0--0----|0--------0--0-----0----|
  *        *  *     *     *        *  *  *  *     *        *  *     *
  E  E  E  E  E  E  E  E  E  E  E  E  E  E  E  E  E  E  E  E  E  E  E  E  
D------------------------|-----------------------|-----------------------|
A------------------------|-----------------------|-----------------------|
F-12-12-15-15-15-15-15-15|15-15-15-15-15-15-15-15|15-15-14-14-14-14-14-14|
C-x--x--x--x--x--x--x--x-|x--x--x--x--x--x--x--x-|x--x--x--x--x--x--x--x-|
G-10-10-13-13-13-13-13-13|13-13-13-13-13-13-13-13|13-13-12-12-12-12-12-12|
C-0--------0--0--0--0----|0--------0--0-----0----|0--------0--0--0--0----|
  *        *  *  *  *     *        *  *     *     *        *  *  *  *
  E  E  E  E  E  E  E
D---------------------|
A---------------------|
F-14-14-14-14-14-14-14|
C-x--x--x--x--x--x--x-|
G-12-12-12-12-12-12-12|
C-0--------0--0-----0-|
  *        *  *     *
Pre-Chorus III

    Q    E  E  E  E  E  E     Q    E  E  E  E  E  E
D-------------------------|---------------------------|
A-----------------14h15p14|-----------------14h15p14--|
F-------------------------|---------------------------|
C---12---12-12-12---------|---12---12-12-12-----------|
G-------------------------|---------------------------|
C-------------------------|---------------------------|


    Q    E  E  E  E  E  E     Q    E  E  E  E  E  E
D-------------------------|---------------------------|
A-----------------14h15p14|-----------------14h15p14--|
F-------------------------|---------------------------|
C---12---12-12-12---------|---12---12-12-12-----------|
G-------------------------|---------------------------|
C-------------------------|---------------------------|


    Q    E  E  E  E  E  E     Q    E  E  E  E  E  E
D-------------------------|---------------------------|
A-----------------14h15p14|-----------------14h15p14--|
F-------------------------|---------------------------|
C---12---12-12-12---------|---12---12-12-12-----------|
G-------------------------|---------------------------|
C-------------------------|---------------------------|


    Q    E  E  E  E  E  E     Q    E  E  E  E  E  E
D-------------------------|---------------------------|
A---14---14-14-14-14-14-14|---14---14-14-14-14-14-14--|
F-------------------------|---------------------------|
C-------------------------|---------------------------|
G-------------------------|---------------------------|
C-------------------------|---------------------------|

Chorus III

  Q.    Q   E E E Q.   E Q   E E E Q.   E E   E E E Q.   E Q   E E E Q. 
D------------------|----------------|----------------|-----------------|
A------------------|----------------|----------------|-----------------|
F------------------|----------------|----------------|-----------------|
C-1-----1---1-1-1-7|---7-7---7-7-7-0|---0-0---0-0-0-6|---6-6---6-6-6-11|
G-1-----1---1-1-1-7|---7-7---7-7-7-0|---0-0---0-0-0-6|---6-6---6-6-6-11|
C-1-----1---1-1-1-7|---7-7---7-7-7-0|---0-0---0-0-0-6|---6-6---6-6-6-11|


    E  Q    E  E  E  Q.   E Q   E E E E
D---------------------|-------------------|
A---------------------|-------------------|
F---------------------|-------------------|
C---11-11---11-11-11-5|---5-5---5-5-5-----|
G---11-11---11-11-11-5|---5-5---5-5-5-*5*-|
C---11-11---11-11-11-5|---5-5---5-5-5-----|

Right now...
    Q    E E E  Q.    Q    E E E 
D-----------------|--------------|
A-----------------|--------------|
F-----------------|--------------|
C--------------*5*|--------------|
G---0----0-0-0----|---0----0-0-0-|
C---0----0-0-0----|---0----0-0-0-|
    *    * * *        *    * * *
We don't give a fuck...
  Q.    Q   E E E Q.   E Q   E E E Q.   E E   E E E Q.   E Q   E E E Q. 
D------------------|----------------|----------------|-----------------|
A------------------|----------------|----------------|-----------------|
F------------------|----------------|----------------|-----------------|
C-1-----1---1-1-1-7|---7-7---7-7-7-0|---0-0---0-0-0-6|---6-6---6-6-6-11|
G-1-----1---1-1-1-7|---7-7---7-7-7-0|---0-0---0-0-0-6|---6-6---6-6-6-11|
C-1-----1---1-1-1-7|---7-7---7-7-7-0|---0-0---0-0-0-6|---6-6---6-6-6-11|


    E  Q    E  E  E  Q.   E Q   E E E E
D---------------------|-----------------|
A---------------------|-----------------|
F---------------------|-----------------|
C---11-11---11-11-11-5|---5-5---5-5-5-5-|
G---11-11---11-11-11-5|---5-5---5-5-5-5-|
C---11-11---11-11-11-5|---5-5---5-5-5-5-|


Outro

   Q.  Q    E E E  Q.    Q    E E E 
D--------------------|--------------|
A--------------------|--------------|
F--------------------|--------------|
C-----------------*5*|--------------|
G-*5*--0----0-0-0----|---0----0-0-0-|
C------0----0-0-0----|---0----0-0-0-|
       *    * * *        *    * * *

   Q.  Q    E E E  Q.    Q    E E E 
D--------------------|--------------|
A--------------------|--------------|
F--------------------|--------------|
C-----------------*5*|--------------|
G-*5*--0----0-0-0----|---0----0-0-0-|
C------0----0-0-0----|---0----0-0-0-|
       *    * * *        *    * * *

   Q.  Q    E E E  Q.    Q    E E E 
D--------------------|--------------|
A--------------------|--------------|
F--------------------|--------------|
C-----------------*5*|--------------|
G-*5*--0----0-0-0----|---0----0-0-0-|
C------0----0-0-0----|---0----0-0-0-|
       *    * * *        *    * * *

   Q.  Q    E E E  Q.    Q    E E E 
D--------------------|----------------|
A--------------------|----------------|
F--------------------|----------------|
C-----------------*5*|--------------0-|
G-*5*--0----0-0-0----|---0----0-0-0-0-|
C------0----0-0-0----|---0----0-0-0-0-|
       *    * * *        *    * * *

----------------------------------------------------------------------------
Duration Legend
---------------
W - whole; H - half; Q - quarter; E - 8th; S - 16th; T - 32nd; X - 64th;  a - acciaccatura
+ - note tied to previous; . - note dotted; .. - note double dotted
Uncapitalized letters represent notes that are staccato (1/2 duration)
Irregular groupings are notated above the duration line
Duration letters will always appear directly above the note/fret number it 
represents the duration for.  
Duration letters with no fret number below them represent rests.  
Multibar rests are notated in the form Wxn, where n is the number of bars to rest for.  Low
melody durations appear below the staff

Tablature Legend
----------------
 h   - hammer-on
 p   - pull-off
 b   - bend
 pb  - pre-bend
 r   - bend release (if no number after the r, then release immediately)
 /\  - slide into or out of (from/to "nowhere")
 s   - legato slide
 S   - shift slide
*n*  - natural harmonic
[n]  - artificial harmonic
n(n) - tapped harmonic
 ~   - vibrato
 tr  - trill
 T   - tap
 TP  - trem. picking
 PM  - palm muting
\n/  - tremolo bar dip; n = amount to dip
 \n  - tremolo bar down
 n/  - tremolo bar up
/n\  - tremolo bar inverted dip
 =   - hold bend; also acts as connecting device for hammers/pulls
 <> - volume swell (louder/softer)
 x   - on rhythm slash represents muted slash
 o   - on rhythm slash represents single note slash


comments
We did not receive enough feedback on this tab! Please rate:
print report bad tab
1 2 3 4 5
1 comment total.
0 reply
lucifer1123 wrote on July 4 2011, 05:34 pm



Q. Q E E E Q. Q E E E Q. Q E E E Q.
D-------------------|----------------|----------------|
A-------------------|----------------|----------------|
F-------------------|----------------|----------------|
C-1-----1---1-1-1-7-|----7---7-7-7-0-|----0---0-0-0-6-|
G-1-----1---1-1-1-7-|----7---7-7-7-0-|----0---0-0-0-6-|
C-1-----1---1-1-1-7-|----7---7-7-7-0-|----0---0-0-0-6-|

Q E E E Q. Q E E E Q. Q E E E
D-----------------|--------------------|--------------|
A-----------------|--------------------|--------------|
F-----------------|--------------------|--------------|
C----6---6-6-6-11-|----11---11-11-11-5-|----5---5-5-5-|
G----6---6-6-6-11-|----11---11-11-11-5-|----5---5-5-5-|
C----6---6-6-6-11-|----11---11-11-11-5-|----5---5-5-5-|

I want to post or [tab]
guest
You may want to rate the tab now too:
select rating
Please do not post tabs as comments. Select "correction" instead!