Oops, an error
Loading. Please wait.

Hypnotize Tab

ver1
ver1
More versions @911Tabs.com
190,769 views 147 this week
37 commentsread comments
1 2 3 4 5
accurate
x 38
Autoscroll
+/-
esc
set tempo
stop
Contributor
Difficulty
intermediate
Hey! There's an official Ultimate Guitar app which is ideal
for learning songs when you're away from computer. Get the app
WARNING: You are trying to view
                                    content from Ultimate-Guitar.com
                                    in an unauthorized application,
                                    which is prohibited.

                                    Please use an official Ultimate
                                    Guitar Tabs application for iPhone,
                                    iPad or Android to access legitimate
                                    chords, guitar, bass, and drum tabs
                                    from Ultimate-Guitar.com database.

                                    Type "ultimate guitar tabs" in Apple
                                    App Store's or Android Market's
                                    search to find the application.
System of A Down
Hypnotize (11/22/05)
(Tankian, Malakian, Oddjian, Dolmayan)

THIS IS NOT MY WORK.  I HAVE COPIED/PASTED
TABS FOR CONVENIENCE.  (THIS HAS ALSO
BEEN EDITED FOR CORRECTNESS)

1.  Attack
2.  Dreaming
3.  Kill Rock N' Roll
4.  Hypnotize
5.  Stealing Society
6.  Tentative
7.  U-Fig
8.  Holy Mountains
9.  Vincinity of Obscenity
10. She's Like Heroin
11. Lonely Day
12. Soldier Side



=-----------------=
1. Attack
=-----------------=

(from nirvana4lf)

Tabbed by:nirvana4lf
Email:nirvana4lf@gmail.com

This is off of the new SoaD album, Hypnotize. I got it leaked so i have it tabbed before 
cd's release (Nov. 22nd).
I did this all by ear so im sorry if there is something that isnt 100% perfect, but this is pretty good.
Enjoy!

Tuning: Db Ab Db Gb Bb Eb (tune down 1/2 step, drop d)

Intro/Main riff - Play 4 times alone, 8 more times with drums and bass

eb|-----------------------------------------------------------------------------|
Bb|-----------------------------------------------------------------------------|
Gb|--8/7-8/7-8/7-8/7-8/7--------------------------------------------------------|
Db|--8/7-8/7-8/7-8/7-8/7--------------------------------------------------------|
Ab|--6/5-6/5-6/5-6/5-6/5--------------------------------------------------------|
Db|------------------------0-0-0-0-0-0-0-0--------------------------------------|
                                PM  |-------------------------------------------|


Verse
eb|-----------------------------------------------------------------------------|
Bb|-----------------------------------------------------------------------------|
Gb|-17---15----------------15-17--14--------------------------------------------|
Db|-0-0-0-0-0-0-0-0-0-0-0-0-0-0-0-0-0-0-0-0-0-0-0-0-0-0-0-0-0-0-0---------------|
Ab|-----------------------------------------------------------------------------|
Db|-----------------------------------------------------------------------------|
The amount of opens might be slightly off, but you get the idea.

eb|-----------------------------------------------------------------------------|
Bb|-----------------------------------------------------------------------------|
Gb|-17---15----------------19--17--14-------------------------1415----17--------|
Db|-0-0-0-0-0-0-0-0-0-0-0-0-0-0-0-0-0-0-0-0-0-0-0-0-0-0-0-0-0-0-0-0-0-0-0-------|
Ab|-----------------------------------------------------------------------------|
Db|-----------------------------------------------------------------------------|

eb|-----------------------------------------------------------------------------|
Bb|-----------------------------------------------------------------------------|
Gb|-19-----------------19----20----17---------------17----19---15---------------|
Db|-0-0-0-0-0-0-0-0-0-0-0-0-0-0 0-0-0-0-0-0-0-0-0-0-0-0-0-0-0-0-0-0-0-0---------|
Ab|-----------------------------------------------------------------------------|
Db|-----------------------------------------------------------------------------|

eb|-----------------------------------------------------------------------------|
Bb|-----------------------------------------------------------------------------|
Gb|---------15----17----141514--------------------------------------------------|
Db|-0-0-0-0-0-0-0-0-0-0-0-0-0-0-0-0-0-0-0-0-0-0-0-0-0-0-------------------------|
Ab|-----------------------------------------------------------------------------|
Db|-----------------------------------------------------------------------------|

Opens are played at a constant rate.

Pre-chorus:







eb|-----------------------------------------------------------------------------|
Bb|-----------------------------------------------------------------------------|
Gb|-----------------------------------------------------------------------------|
Db|-5-5--3-3--7-7--5-5--8-8--7-7--10-10--10-10----------------------------------|
Ab|-5-5--3-3--7-7--5-5--8-8--7-7--10-10--10-10----------------------------------|
Db|-5-5--3-3--7-7--5-5--8-8--7-7--10-10--10-10----------------------------------|
   PM |-------------------------------------------------------------------------|

eb|-----------------------------------------------------------------------------|
Bb|-----------------------------------------------------------------------------|
Gb|-----------------------------------------------------------------------------|
Db|--12-12-12--10-10-10--8-8-8--10-10-10--8-8-8--7-7-7--8-8-8--7-7-7------------|
Ab|--12-12-12--10-10-10--8-8-8--10-10-10--8-8-8--7-7-7--8-8-8--7-7-7------------|
Db|--12-12-12--10-10-10--8-8-8--10-10-10--8-8-8--7-7-7--8-8-8--7-7-7------------|
   PM |-------------------------------------------------------------------------|

Chorus

Play 4 times
eb|-----------------------------------------------------------------------------|
Bb|-----------------------------------------------------------------------------|
Gb|-5--8--7---------------------------------------------------------------------|
Db|-5--8--7---------------------------------------------------------------------|
Ab|-3--6--5---------------------------------------------------------------------|
Db|----------000-000-000-000-000-000--------------------------------------------|
 PM|-----|  |-------------------------------------------------------------------|

then this:

eb|-----------------------------------------------------------------------------|
Bb|-----------------------------------------------------------------------------|
Gb|-7/1111-11-11-11-11-11-11-12--11-11--7--7--8---------------------------------|
Db|-7/1111-11-11-11-11-11-11-12--11-11--7--7--8---------------------------------|
Ab|-5/9--9--9--9--9--9--9--9--10--9--9---5--5--6--------------------------------|
Db|-----------------------------------------------------------------------------|
                                                     PM |----|

Pre-chorus:

eb|-----------------------------------------------------------------------------|
Bb|-----------------------------------------------------------------------------|
Gb|-----------------------------------------------------------------------------|
Db|-5-5--3-3--7-7--5-5--8-8--7-7--10-10--10-10----------------------------------|
Ab|-5-5--3-3--7-7--5-5--8-8--7-7--10-10--10-10----------------------------------|
Db|-5-5--3-3--7-7--5-5--8-8--7-7--10-10--10-10----------------------------------|
   PM |-------------------------------------------------------------------------|

eb|-----------------------------------------------------------------------------|
Bb|-----------------------------------------------------------------------------|
Gb|-----------------------------------------------------------------------------|
Db|--12-12-12--10-10-10--8-8-8--10-10-10--8-8-8--7-7-7--8-8-8--7-7-7------------|
Ab|--12-12-12--10-10-10--8-8-8--10-10-10--8-8-8--7-7-7--8-8-8--7-7-7------------|
Db|--12-12-12--10-10-10--8-8-8--10-10-10--8-8-8--7-7-7--8-8-8--7-7-7------------|
   PM |-------------------------------------------------------------------------|


Chorus

Play 4 times
eb|-----------------------------------------------------------------------------|
Bb|-----------------------------------------------------------------------------|
Gb|-5--8--7---------------------------------------------------------------------|
Db|-5--8--7---------------------------------------------------------------------|
Ab|-3--6--5---------------------------------------------------------------------|
Db|----------000-000-000-000-000-000--------------------------------------------|
 PM|-----|  |-------------------------------------------------------------------|

then this:

eb|-----------------------------------------------------------------------------|
Bb|-----------------------------------------------------------------------------|
Gb|-7/1111-11-11-11-11-11-11----------------------------------------------------|
Db|-7/1111-11-11-11-11-11-11----------------------------------------------------|
Ab|-5/9--9--9--9--9--9--9--9----------------------------------------------------|
Db|-----------------------------------------------------------------------------|

Main riff:
8 times
eb|-----------------------------------------------------------------------------|
Bb|-----------------------------------------------------------------------------|
Gb|--8/7-8/7-8/7-8/7-8/7--------------------------------------------------------|
Db|--8/7-8/7-8/7-8/7-8/7--------------------------------------------------------|
Ab|--6/5-6/5-6/5-6/5-6/5--------------------------------------------------------|
Db|------------------------0-0-0-0-0-0-0-0--------------------------------------|
                                PM  |-------------------------------------------|


Verse
Play twice
eb|-----------------------------------------------------------------------------|
Bb|-----------------------------------------------------------------------------|
Gb|-17---15----------------15-17--14--------------------------------------------|
Db|-0-0-0-0-0-0-0-0-0-0-0-0-0-0-0-0-0-0-0-0-0-0-0-0-0-0-0-0-0-0-0---------------|
Ab|-----------------------------------------------------------------------------|
Db|-----------------------------------------------------------------------------|

eb|-----------------------------------------------------------------------------|
Bb|-----------------------------------------------------------------------------|
Gb|-17---15----------------19--17--14-------------------------1415----17--------|
Db|-0-0-0-0-0-0-0-0-0-0-0-0-0-0-0-0-0-0-0-0-0-0-0-0-0-0-0-0-0-0-0-0-0-0-0-------|
Ab|-----------------------------------------------------------------------------|
Db|-----------------------------------------------------------------------------|

eb|-----------------------------------------------------------------------------|
Bb|-----------------------------------------------------------------------------|
Gb|-19-----------------19----20----17---------------17----19---15---------------|
Db|-0-0-0-0-0-0-0-0-0-0-0-0-0-0 0-0-0-0-0-0-0-0-0-0-0-0-0-0-0-0-0-0-0-0---------|
Ab|-----------------------------------------------------------------------------|
Db|-----------------------------------------------------------------------------|

eb|-----------------------------------------------------------------------------|
Bb|-----------------------------------------------------------------------------|
Gb|---------15----17----141514--------------------------------------------------|
Db|-0-0-0-0-0-0-0-0-0-0-0-0-0-0-0-0-0-0-0-0-0-0-0-0-0-0-------------------------|
Ab|-----------------------------------------------------------------------------|
Db|-----------------------------------------------------------------------------|


Pre-chorus:

eb|-----------------------------------------------------------------------------|
Bb|-----------------------------------------------------------------------------|
Gb|-----------------------------------------------------------------------------|
Db|-5-5--3-3--7-7--5-5--8-8--7-7--10-10--10-10----------------------------------|
Ab|-5-5--3-3--7-7--5-5--8-8--7-7--10-10--10-10----------------------------------|
Db|-5-5--3-3--7-7--5-5--8-8--7-7--10-10--10-10----------------------------------|
   PM |-------------------------------------------------------------------------|

eb|-----------------------------------------------------------------------------|
Bb|-----------------------------------------------------------------------------|
Gb|-----------------------------------------------------------------------------|
Db|--12-12-12--10-10-10--8-8-8--10-10-10--8-8-8--7-7-7--8-8-8--7-7-7------------|
Ab|--12-12-12--10-10-10--8-8-8--10-10-10--8-8-8--7-7-7--8-8-8--7-7-7------------|
Db|--12-12-12--10-10-10--8-8-8--10-10-10--8-8-8--7-7-7--8-8-8--7-7-7------------|
   PM |-------------------------------------------------------------------------|


Chorus

Play 4 times
eb|-----------------------------------------------------------------------------|
Bb|-----------------------------------------------------------------------------|
Gb|-5--8--7---------------------------------------------------------------------|
Db|-5--8--7---------------------------------------------------------------------|
Ab|-3--6--5---------------------------------------------------------------------|
Db|----------000-000-000-000-000-000--------------------------------------------|
 PM|-----|  |-------------------------------------------------------------------|


then this:


eb|-----------------------------------------------------------------------------|
Bb|-----------------------------------------------------------------------------|
Gb|-7/1111-11-11-11-11-11-11-12--11-11--7--7--8---------------------------------|
Db|-7/1111-11-11-11-11-11-11-12--11-11--7--7--8---------------------------------|
Ab|-5/9--9--9--9--9--9--9--9--10--9--9---5--5--6--------------------------------|
Db|-----------------------------------------------------------------------------|
                                                     PM |----|

Slower version of chorus:

eb|-----------------------------------------------------------------------------|
Bb|-----------------------------------------------------------------------------|
Gb|-5--8--7-----------7---------------------------------------------------------|
Db|-5--8--7-----------7---------------------------------------------------------|
Ab|-3--6--5-----------5---------------------------------------------------------|
Db|----------0--0--0--0--0--0--0--0--0--0--0--0---------------------------------|
          PM |--------|     |---------------------------------------------------|

then this:

eb|-----------------------------------------------------------------------------|
Bb|-----------------------------------------------------------------------------|
Gb|-7/1111-11-11-11-11-11-11----------------------------------------------------|
Db|-7/1111-11-11-11-11-11-11----------------------------------------------------|
Ab|-5/9--9--9--9--9--9--9--9----------------------------------------------------|
Db|-----------------------------------------------------------------------------|


Outro

eb|-----------------------------------------------------------------------------|
Bb|-----------------------------------------------------------------------------|
Gb|-----------------------------------------------------------------------------|
Db|-4--4--4--4--4--4--4-----1--4----5--4----1--4----5--4------------------------|
Ab|-4--4--4--4--4--4--4-----1--4----5--4----1--4----5--4------------------------|
Db|-4--4--4--4--4--4--4-----1--4----5--4----1--4----5--4------------------------|

eb|---------------------------------------------------------------------------|
Bb|---------------------------------------------------------------------------|
Gb|---------5--8--7-----------------------------------------------------------|
Db|---------5--8--7-----------------------------------------------------------|
Ab|--0--0---3--6--5-----------------------------------------------------------|
Db|--0--0---------------------------------------------------------------------|
PM |----|


| /  slide up
| \  slide down
| h  hammer-on
| p  pull-off
| ~  vibrato
| +  harmonic
| x  Mute note
===============================================================================





=-----------------=
2. Dreaming
=-----------------=

(from r18)

Tabbed by:Ryan Kozicki
Email:rydeen@gmail.com

Tuning: C G C F A D
===============================================================================

| /  slide up
| \  slide down
| h  hammer-on
| p  pull-off
| ~  vibrato
| +  harmonic
| x  Mute note
===============================================================================
Intro

|-------------------------------------|
|-------------------------------------|
|-------------------------------------| X 11
|-14-0-0-0-13-0-0-0-12-0-0-0-11-0-0-0-|
|-------------------------------------|
|-------------------------------------|

|---------------------------------|
|---------------------------------|
|---------------------------------|
|---------------------------------|
|---------------------------------|
|-8-8-8-8-/12--8-8-8-8-/12--------|


Verse

|--------------------------------------|
|--------------------------------------|
|--------------------------------------|
|-14-0-0-0-13-0-0-0-12-0-0-0-11-0-0-0--| X 7
|-14-0-0-0-13-0-0-0-12-0-0-0-11-0-0-0--|
|-14-0-0-0-13-0-0-0-12-0-0-0-11-0-0-0--|

|---------------------------------|
|---------------------------------|
|---------------------------------|
|---------------------------------|
|---------------------------------|
|-8-8-8-8-/12--8-8-8-8-/12--------|

|---------------------|
|---------------------|
|---------------------|
|-14-0-13-0-12-0-11-0-| X 7 Palmed
|-14-0-13-0-12-0-11-0-|
|-14-0-13-0-12-0-11-0-|

|---------------------------------|
|---------------------------------|
|---------------------------------|
|---------------------------------|
|---------------------------------|
|-8-8-8-8-/12---/12-/12-/12-------|

Chorus

|---------------------------------|
|---------------------------------|
|-----------------8----8----------|
|-0----0--5----5--8----8--4--5-7--|
|-0----0--5----5--6----6--4--5-7--|
|-0----0--5----5----------4--5-7--|

|-----------------------------------|
|-----------------------------------|
|-----------------8----8------------|
|-0----0--5----5--8----8--11-12-14--|
|-0----0--5----5--6----6--11-12-14--|
|-0----0--5----5----------9--10-12--|

Verse

|--------------------------------------|
|--------------------------------------|
|--------------------------------------|
|-14-0-0-0-13-0-0-0-12-0-0-0-11-0-0-0--| X 7
|-14-0-0-0-13-0-0-0-12-0-0-0-11-0-0-0--|
|-14-0-0-0-13-0-0-0-12-0-0-0-11-0-0-0--|

|---------------------------------|
|---------------------------------|
|---------------------------------|
|---------------------------------|
|---------------------------------|
|-8-8-8-8-/12--8-8-8-8-/12--------|

|---------------------|
|---------------------|
|---------------------|
|-14-0-13-0-12-0-11-0-| X 7 Palmed
|-14-0-13-0-12-0-11-0-|
|-14-0-13-0-12-0-11-0-|

|---------------------------------|
|---------------------------------|
|---------------------------------|
|---------------------------------|
|---------------------------------|
|-8-8-8-8-/12---/12-/12-/12-------|

Chorus

|---------------------------------|
|---------------------------------|
|-----------------8----8----------|
|-0----0--5----5--8----8--4--5-7--|
|-0----0--5----5--6----6--4--5-7--|
|-0----0--5----5----------4--5-7--|

|-----------------------------------|
|-----------------------------------|
|-----------------8----8------------|
|-0----0--5----5--8----8--11-12-14--|
|-0----0--5----5--6----6--11-12-14--|
|-0----0--5----5----------9--10-12--|

Bridge

|-----------------------------------------|
|-----------------------------------------|
|-----------------------------------------|
|-5--7-7-7-7-7-7-5---1--3-3-3-3-3-3-1-----|
|-5--5-5-5-5-5-5-5---1--1-1-1-1-1-1-1-----|
|-5--5-5-5-5-5-5-5---1--1-1-1-1-1-1-1-----|






-----------------------------------------|
-----------------------------------------|
-----------------------------------------|
-3--5-5-5-5-5-5-3---7--7--7-7-7--7-7-7-7-|
-3--3-3-3-3-3-3-3------------------------|
-3--3-3-3-3-3-3-3---5--5--5-5-5--5-5-5-5-|

Solo

|--------------------------------------------------------------------------|
|----------13-15-16-18----16-16-16p-15-13----------------------------------|
|-12-14-15-14-15-17-19----17-17-17p-15-14-15-14----19-19-19-19-19-19-19-19-|X2
|-----------------------------------------17-15----------------------------|
|--------------------------------------------------17-17-17-17-17-17-17-17-|
|--------------------------------------------------------------------------|

|-17-17-17-17-17-17-17-17--15-15-15-15-15-15-15-15-|
|-15-15-15-15-15-15-15-15--15-15-15-15-15-15-15-15-|
|--------------------------------------------------|X 3
|--------------------------------------------------|
|--------------------------------------------------|
|--------------------------------------------------|

-15-15-15-15-15-15-15-15--14-14-14-14-14-14-14-14-|
-15-15-15-15-15-15-15-15--15-15-15-15-15-15-15-15-|
--------------------------------------------------|
--------------------------------------------------|
--------------------------------------------------|
--------------------------------------------------|

|-17-17-17-17-17-17-17-17--15-15-15-15-15-15-15-15-|
|-15-15-15-15-15-15-15-15--15-15-15-15-15-15-15-15-|
|--------------------------------------------------|X 3
|--------------------------------------------------|
|--------------------------------------------------|
|--------------------------------------------------|


-15-15-15-15-15-15-15-15--14-|
-15-15-15-15-15-15-15-15--15-|
-----------------------------|
-----------------------------|
-----------------------------|
-----------------------------|

Verse

|--------------------------------------|
|--------------------------------------|
|--------------------------------------|
|-14-0-0-0-13-0-0-0-12-0-0-0-11-0-0-0--| X 7
|-14-0-0-0-13-0-0-0-12-0-0-0-11-0-0-0--|
|-14-0-0-0-13-0-0-0-12-0-0-0-11-0-0-0--|

|---------------------------------|
|---------------------------------|
|---------------------------------|
|---------------------------------|
|---------------------------------|
|-8-8-8-8-/12--8-8-8-8-/12--------|

|---------------------|
|---------------------|
|---------------------|
|-14-0-13-0-12-0-11-0-| X 7 Palmed
|-14-0-13-0-12-0-11-0-|
|-14-0-13-0-12-0-11-0-|

|---------------------------------|
|---------------------------------|
|---------------------------------|
|---------------------------------|
|---------------------------------|
|-8-8-8-8-/12---/12-/12-/12-------|

Chorus

|---------------------------------|
|---------------------------------|
|-----------------8----8----------|
|-0----0--5----5--8----8--4--5-7--|
|-0----0--5----5--6----6--4--5-7--|
|-0----0--5----5----------4--5-7--|

|-----------------------------------|
|-----------------------------------|
|-----------------8----8------------|
|-0----0--5----5--8----8--11-12-14--|
|-0----0--5----5--6----6--11-12-14--|
|-0----0--5----5----------9--10-12--|


Outro Verse (play it X 3)

|------------------------------------------------------------------|
|------------------------------------------------------------------|
|------------------------------------------------------------------|
|------------------------------------------------------------------|
|------------------------------------------------------------------|
|-0-0-0-0-0-0-0-0-0-0-0-0-0-0-0-0--5-5-5-5-5-5-5-5-5-5-5-5-5-5-5-5-|


|-----------------------------------------------------------|
|-----------------------------------------------------------|
|-----------------------------------------------------------|
|----------------------------------11-11-11-11-11-11--12-12-|
|-6-6-6-6-6-6-6-6-6-6-6-6-6-6-6-6---9--9--9--9--9--9--10-10-|
|-----------------------------------------------------------|

-------------------------|
-------------------------|
-------------------------|
-------------------------|
-14-14-14-14-14-14-14-14-|
-12-12-12-12-12-12-12-12-|

Outro

|---------------------|
|---------------------|
|---------------------|
|-14-0-13-0-12-0-11-0-| X 7 Pamlmed
|-14-0-13-0-12-0-11-0-|
|-14-0-13-0-12-0-11-0-|

|---------------------------------|
|---------------------------------|
|---------------------------------|
|---------------------------0-----|
|---------------------------0-----|
|-8-8-8-8-/12---/12-/12-/12-0-----|

The end




=--------------------=
3. Kill Rock N' Roll
=--------------------=

(from shotgun joe)


This song is teh sex, such a great song! This is a tab for the studio version, not the 
version that is already tabbed here.
TUNING - Drop Db

. = palm muted

INTRO
--------------------------------------------------|
--------------------------------------------------|
--------------------------------------------------|
--10-10-10-10-10-10-10-10-10-10-10-10-10-10-10-10-|
-8--8--8--8--8--8--8--8---------------------------|
-------------------------7--7--7--7--7--7--7--7---|

----------------------------------|
----------------------------------|
----------------------------------|
--9-9-9-9-9-9-9-9-9-9-9-9-9-9-9-9-| x 2
-7-7-7-7-7-7-7-7-8-8-8-8-8-8-8-8--|
----------------------------------|

This is also played the second time (fast picking):
-13-(x16)-12-(x14)-13-(x2)-15-(x4)----------------------------------|
-15-------13-------15------17------15-(x4)-12-(x4)-15-(x4)-13-(x16)-|
-----------------------------------16------13------16------14-------|
--------------------------------------------------------------------|
--------------------------------------------------------------------|
--------------------------------------------------------------------|

CHORUS
-------------------------------------------------|
-------------------------------------------------|
-----5-------4-----------------------------------|
-3---5---2---4---7-7-7-7-7-7-7-7-7-7-7-7-7-7-7-7-| x 2
-3---3---2---2---7-7-7-7-7-7-7-7-7-7-7-7-7-7-7-7-|
-3-------2-------7-7-7-7-7-7-7-7-7-7-7-7-7-7-7-7-|
                 . . . . . . . . . . . . . . . .

VERSE
-------------------------------------------|
-------------------------------------------|
-------------------------------------------|
-3-3-3-3-3-3-3-3-(x2)-7-7-7-7-7-7-7-7-(x2)-|
-3-3-3-3-3-3-3-3------7-7-7-7-7-7-7-7------|
-3-3-3-3-3-3-3-3------7-7-7-7-7-7-7-7------|

-------------------------------------------|
-------------------------------------------|
-------------------------------------------|
-2-2-2-2-2-2-2-2-(x2)-3-3-3-3-3-3-3-3-(x2)-|
-2-2-2-2-2-2-2-2------3-3-3-3-3-3-3-3------|
-2-2-2-2-2-2-2-2------3-3-3-3-3-3-3-3------|


INTRO TO BRIDGE
-----------------------------|
-----------------------------|
-----------------------------|
-3-----/8--7-----2-----3-----| x2
-3-----/8--7-----2-----3-----|
-3-----/8--7-----2-----3-----|

BRIDGE (All palm muted)

------------------------------------------|
------------------------------------------|
--------5--------------------3------------|
-----7----7--------------5-----5----------| x 8 (First four times clean,
---7---7----7---(x2)---5---5-----5---(x2)-|      last four distortion)
-7------------7------5-------------5------|

LAST CHORUS
-------------------------------|
-------------------------------|
-----5-------4-------5-------4-|
-3---5---2---4---3---5---2---4-|
-3---3---2---2---3---3---2---2-|
-3-------2-------3-------2-----|

-----------------------------------------------------------------|
-----------------------------------------------------------------|
-----------------------------------------------------------------|
-----------------------------------------------------------------| x2(Very
-----------------3-3-3-3-3-3-3-3-----------------2-2-2-2-2-2-2-2-|    fast
-3-3-3-3-3-3-3-3-----------------2-2-2-2-2-2-2-2-----------------| picking)
 . . . . . . . . . . . . . . . . . . . . . . . . . . . . . . . .

---
---
---
-7-
-7-
-7-

ORDER

INTRO
CHORUS
VERSE
CHORUS
VERSE
INTRO TO BRIDGE
BRIDGE
VERSE
INTRO TO BRIDGE (first time normal, second time palm muted and
                 constant notes)
LAST CHORUS

Thanks! Any corrections send them to Shotgun Joe at coolandcrazy@hotmail.com!





=--------------------=
4. Hypnotize
=--------------------=

(from maitinin)

    ____________________
   / System of a Down  /  I think that this song is about the American people
  / Hypnotize         /  neglecting to stand up against the American government
 / Hypnotize         /  ruling the country by blinding and brainwashing its
/___________________/  population with 'propaganda' to cover all its fraud.
                      'The kids at Tiananmen Square' was the Chinese student's
demonstration in 1989, which ended up being slaughtered by the Chinese police.
Ironically, it was against the Chinese Government's violent treatment of its own
population and the censored freedom of speech, which SOAD sadly admits is
conspicuously maintained in America this day as well. ...Regretfully the Americans
are just innocently 'sitting in their cars and waiting for their girls'...


Tuning: Db Ab Db Gb Bb Eb
        C# G# C# F# A# D#
Gtr I - Electric, Clean
Gtr II - Electric, Distorted
Gtr III - Electric, Clean
Gtr IV - Electric, Clean w/ octaver producing a note one octave below



 Intro
  4/4
  Q=75 bpm
  Gtr I
    N.C.
    S S S S S S S S S S S S S S S S   S S S S S S S S S S S S S S S S
||----------------------------------|----------------------------------||
||o-1---1---3---3---3---3---3---3---|-4---4---3---3---1---1---0---0---o||
||----0---0---0---0---0---0---0---0-|---0---0---0---0---0---0---0---0--||
||----------------------------------|----------------------------------||
||o---------------------------------|---------------------------------o||
||----------------------------------|----------------------------------||


    S S S S S S S S  S S  S S S S S S    S S  S S  S S  S S  S S  S S  S S  S S
||------------------------------------|------------------------------------------||
||o-8---8---7---7---10---10---8---8---|-12---12---10---10---13---13---12---12---o||
||----0---0---0---0----0----0---0---0-|----0----0----0----0----0----0----0----0--||
||------------------------------------|------------------------------------------||
||o-----------------------------------|-----------------------------------------o||
||------------------------------------|------------------------------------------||


   N.C.
   S S  S S  S S  S S  S S  S S  S S  S S    S S  S S  S S  S S  S S  S S S S S S
|-----------------------------------------|---------------------------------------|
|-15---15---13---13---12---12---10---10---|-13---13---12---12---10---10---8---8---|
|----0----0----0----0----0----0----0----0-|----0----0----0----0----0----0---0---0-|
|-----------------------------------------|---------------------------------------|
|-----------------------------------------|---------------------------------------|
|-----------------------------------------|---------------------------------------|


   S S  S S  S S  S S S S S S S S S S
|-------------------------------------|
|-11---11---10---10---8---8---7---7---|
|----0----0----0----0---0---0---0---0-|
|-------------------------------------|
|-------------------------------------|
|-------------------------------------|




 1st Verse
  Gtr II
    Gb5                     D5(b5)    Gb5                     D5(b5)
    Q       E.    S E   E   S S E     Q       E.    S E   E   S S E    4x
||----------------------------------|----------------------------------||
||o---------------------------------|---------------------------------o||
||--------------------------8-8-8---|-------------------------8-8-8----||
||--5-------5-----5-5---5---7-8-8---|-5-------5-----5-5---5---7-8-8----||
||o-5-------5-----5-5---5---6-6-6---|-5-------5-----5-5---5---6-6-6---o||
||--5-------5-----5-5---5-----------|-5-------5-----5-5---5------------||
...why don't you ask the kids at Tiananmen Square?...


 Gtr I
   N.C.
   S S  S S  S S  S S  S S  S S  S S  S S    S S  S S  S S  S S  S S  S S S S S S
|-----------------------------------------|---------------------------------------|
|-15---15---13---13---12---12---10---10---|-13---13---12---12---10---10---8---8---|
|----0----0----0----0----0----0----0----0-|----0----0----0----0----0----0---0---0-|
|-----------------------------------------|---------------------------------------|
|-----------------------------------------|---------------------------------------|
|-----------------------------------------|---------------------------------------|
...I'm just sitting in my car...


   S S  S S  S S  S S S S S S S S S S
|-------------------------------------|
|-11---11---10---10---8---8---7---7---|
|----0----0----0----0---0---0---0---0-|
|-------------------------------------|
|-------------------------------------|
|-------------------------------------|




 2nd Verse
similar to 1st Verse, and play this part afterwards:

 Gtr II
  Q       E.    S E   E   S S E     Q       E.    S E   E   S S E
|---------------------------------|---------------------------------|
|---------------------------------|---------------------------------|
|-------------------------8-8-8---|-------------------------8-8-8---|
|-5-------5-----5-5---5---7-8-8---|-5-------5-----5-5---5---7-8-8---|
|-5-------5-----5-5---5---6-6-6---|-5-------5-----5-5---5---6-6-6---|
|-5-------5-----5-5---5-----------|-5-------5-----5-5---5-----------|




 Chorus
 Gtr II
  Gb5             D(b5)             D(b5)            E5
  E   E   E   E   E   E   E   E     E   E   E   E    S  S  S  S  E    E
|---------------------------------|---------------------------------------|
|---------------------------------|---------------------------------------|
|-----------------8---8---8---8---|-8---8---8---8---10-10-10-10-10---10---|
|-5---5---5---5---7---7---7---7---|-7---7---7---7---10-10-10-10-10---10---|
|-5---5---5---5---6---6---6---6---|-6---6---6---6----8--8--8--8--8----8---|
|-5---5---5---5-------------------|---------------------------------------|
...I'm just sitting in my car...


  A5              Db5
  Q       Q       Q       Q
|---------------------------------|
|---------------------------------|
|-----------------7-------7-------|
|-8-------8-------7-------7-------|
|-8-------8-------5-------5-------|
|-8-------8-------0-------0-------|




 Bridge
 Gtr II
    Gb5   Db5   E5  Gb5   Db5   E5  Gb5   Db5   E5  Gb5     Db5    E5
    PM-------------------------------------------------------------|
    S.    T S   S   S.    T S   S   S.    T S   S   S.      T  S   S
||----------------------------------------------------------------------||
||o--------------------------------------------------------------------o||
||----------------------------------------------------------------------||
||----------------------------------------------------------------------||
||o-5-----0-0---3---5-----0-0---3---5-----0-0---3---5-------0--0---3---o||
||--5-----0-0---3---5-----0-0---3---5-----0-0---3---5-------0--0---3----||
|
|Gtr III
|                                                        Bb
|   H                               Q               S    T  T  E
||------------------------------------------------------19-19-19--------||
||o-----------------------------------------------------20-20-20-------o||
||------------------------------------------------------19-19-19--------||
||----------------------------------------------------------------------||
||o--------------------------------------------------------------------o||
||----------------------------------------------------------------------||




 Interlude (each guitar is written separately for clarity)
 Gtr I
    S S S S S S S S S S S S S S S S   S S S S S S S S S S S S S S S S
||----------------------------------|----------------------------------||
||o-1---1---3---3---3---3---3---3---|-4---4---3---3---1---1---0---0---o||
||----0---0---0---0---0---0---0---0-|---0---0---0---0---0---0---0---0--||
||----------------------------------|----------------------------------||
||o---------------------------------|---------------------------------o||
||----------------------------------|----------------------------------||


    S S S S S S S S  S S  S S S S S S    S S  S S  S S  S S  S S  S S  S S  S S
||------------------------------------|------------------------------------------||
||o-8---8---7---7---10---10---8---8---|-12---12---10---10---13---13---12---12---o||
||----0---0---0---0----0----0---0---0-|----0----0----0----0----0----0----0----0--||
||------------------------------------|------------------------------------------||
||o-----------------------------------|-----------------------------------------o||
||------------------------------------|------------------------------------------||



 Gtr II
    PM------------------------------------------------------------|
    S.    T S   S   S.    T S   S   S.    T S   S   S.      T S   S    8x
||---------------------------------------------------------------------||
||o-------------------------------------------------------------------o||
||---------------------------------------------------------------------||
||---------------------------------------------------------------------||
||o-5-----0-0---3---5-----0-0---3---5-----0-0---3---5-------0-0---3---o||
||--5-----0-0---3---5-----0-0---3---5-----0-0---3---5-------0-0---3----||



 Gtr III
    H                               Q               S    T  T  E        4x
||------------------------------------------------------19-19-19--------||
||o-----------------------------------------------------20-20-20-------o||
||------------------------------------------------------19-19-19--------||
||----------------------------------------------------------------------||
||o--------------------------------------------------------------------o||
||----------------------------------------------------------------------||


    Q            S    T  T  E       Q               S    T  T  E        4x





||-------------------19-19-19---------------------------19-19-19--------||
||o------------------20-20-20---------------------------20-20-20-------o||
||-------------------19-19-19---------------------------19-19-19--------||
||----------------------------------------------------------------------||
||o--------------------------------------------------------------------o||
||----------------------------------------------------------------------||



 Gtr IV
     Q..            S  Q..            T  T
||-----------------------------------------|
||o-------------------12-------------12-13-|
||--12-------------14----------------------|
||-----------------------------------------|
||o----------------------------------------|
||-----------------------------------------|


               |--3--|                      |--3--|
   S  S  S  S  T  T  T  S  S  S  S  S  S  S T  T  T   S  S  S
|--------------------------------------------------------------||
|-15-13-12-13-12h13p12----12----------12-13-12h13p12----12----o||
|----------------------14----14-12-14----------------14----14--||
|--------------------------------------------------------------||
|-------------------------------------------------------------o||
|--------------------------------------------------------------||



    E   E   E   E    E    E   E   E      E    E    E    E    E    E    E    E
||------------------------------------|------------------------------------------||
||o-8---8---7---7---10---10---8---8---|-12---12---10---10---13---13---12---12---o||
||------------------------------------|------------------------------------------||
||------------------------------------|------------------------------------------||
||o-----------------------------------|-----------------------------------------o||
||------------------------------------|------------------------------------------||




 Chorus
 Gtr II
  E   E   E   E   E   E   E   E     E   E   E   E    E    E    E    E
|---------------------------------|-------------------------------------|
|---------------------------------|-------------------------------------|
|-----------------8---8---8---8---|-8---8---8---8---10---10---10---10---|
|-5---5---5---5---7---7---7---7---|-7---7---7---7---10---10---10---10---|
|-5---5---5---5---6---6---6---6---|-6---6---6---6----8----8----8----8---|
|-5---5---5---5-------------------|-------------------------------------|


  Q       Q       Q       Q
|---------------------------------|
|---------------------------------|
|-----------------7-------7-------|
|-8-------8-------7-------7-------|
|-8-------8-------5-------5-------|
|-8-------8-------0-------0-------|


    PM-------------------------------------------------------------|
    S.    T S   S   S.    T S   S   S.    T S   S   S.      T  S   S
||----------------------------------------------------------------------||
||o--------------------------------------------------------------------o||
||----------------------------------------------------------------------||
||----------------------------------------------------------------------||
||o-5-----0-0---3---5-----0-0---3---5-----0-0---3---5-------0--0---3---o||
||--5-----0-0---3---5-----0-0---3---5-----0-0---3---5-------0--0---3----||


  S S S S Q       S S S S Q         S S S S Q        S  S  S  S Q




|---------------------------------|-------------------------------------|
|---------------------------------|-------------------------------------|
|-----------------8-8-8-8---------|-8-8-8-8---------10-10-10-10---------|
|-5-5-5-5---------7-7-7-7---------|-7-7-7-7---------10-10-10-10---------|
|-5-5-5-5---------6-6-6-6---------|-6-6-6-6----------8--8--8--8---------|
|-5-5-5-5-------------------------|-------------------------------------|


  H               H                 +W
|---------------------------------|-----------------------------------|
|---------------------------------|-----------------------------------|
|-----------------7---------------|-(7)-------------------------------|
|-8---------------7---------------|-(7)-------------------------------|
|-8---------------5---------------|-(5)-------------------------------|
|-8---------------0---------------|-(0)-------------------------------|




 Outro
 Q=50 bpm (just slow down, anyways)
 Gtr I
  S S S S S S S S S S S S S S S S   S S S S S S S S S S S S S S E     W
|---------------------------------|---------------------------------|---------|
|-1---1---3---3---3---3---3---3---|-4---4---3---3---1---1---1h3p1---|-0-------|
|---0---0---0---0---0---0---0---0-|---0---0---0---0---0---0---------|-0-------|
|---------------------------------|---------------------------------|---------|
|---------------------------------|---------------------------------|---------|
|---------------------------------|---------------------------------|---------|




Why don't you ask the kids at Tiananmen Square?
Was fashion the reason why they were there?
They disguise it, hypnotize it
Television made you buy it

I'm just sitting in my car and waiting for my girl

She's scared that I will take her away from there
Dreams that her country left with no one there
Mesmerize the simple minded
Propaganda leaves us blinded

I'm just sitting in my car and waiting for my girl

I'm just sitting in my car and waiting for my girl



- 7th /October /05
Just mail me at Maitinin@gmail.com with questions, comments or corrections!



=--------------------=
5. Stealing Society
=--------------------=

(from SLASHinROSES)

Tuning: Dropped Db

Pretty Fast Song. I Like The Surfer Sounding Bridge

A 
|-----------------------------------------------------------------------|
|-----------------------------------------------------------------------|
|-----------------------------------------------------------------------|
|-6777677767776---6777677767776---67776---67776---6777677767776---------|
|-6777677767776---6777677767776---67776---67776---6777677767776---------|
|-6777677767776---6777677767776---67776---67776---6777677767776---------|
               yea           allright  yea   allright

B 
|-----------------------------------------------------------------------|
|-----------------------------------------------------------------------|
|-----------------------------------------------------------------------|
|-66766767976467--66766767976467--66766767976467--667667679-7-6-4-6-7---|
|-66766767976467--66766767976467--66766767976467--667667679-7-6-4-6-7---|
|-66766767976467--67766767976467--66766767976467--667667679-7-6-4-6-7---|

C
|-----------------------------------------------------------------------|
|-----------------------------------------------------------------------|
|-----------------------------------------------------------------------|
|-----------------------------------------------------------------------|
|-6666666766666676666666676666666667-55555555565555555565555555565555556|
|-----------------------------------------------------------------------|

D
|-----------------------------------------------------------------------|
|-----------------------------------------------------------------------|
|-----------------------------------------------------------------------|
|-9-9--9-6-6--6-11-11--11-6-6--6-8---------88889---------9999-----------|
|-9-9--9-6-6--6--9--9---9-6-6--6-6666666666666677777777777777-----------|
|-9-9--9-6-6--6-----------6-6--6----------------------------------------|

E
|-----------------------------------------------------------------------|
|-----------------------------------------------------------------------|
|-----------------------------------------------------------------------|
|-9-9--9-6-6--6-8-8--8-9-9--9-8---------88889---------9999--------------|
|-9-9--9-6-6--6-6-6--6-7-7--7-6666666666666677777777777777--------------|
|-9-9--9-6-6--6---------------------------------------------------------|

F                           G
|-------------------------|---------------------------------------------|
|-------------------------|---------------------------------------------|
|-------------------------|---------------------------------------------|
|-676-676-676-676-676-676-|-99764467------------------------------------|
|-676-676-676-676-676-676-|-99764467------------------------------------|
|-676-676-676-676-676-676-|-99764467------------------------------------|


H
|-----------------------------------------------------------------------|
|-----------------------------------------------------------------------|
|-----------------------------------------------------------------------|
|-6----8----9--12\--6----8----9--12\------------------------------------|
|-6----6----7--12\--6----6----7--12\------------------------------------|
|-6------------12\--6------------12\------------------------------------|

I

|-----------------------------------------------------------------------|
|-----------------------------------------------------------------------|
|----------------------------------------------------7-77777777777777---|
|-6-66666666666666-9-99999999999999-8-88888888888888-5-55555555555555---|
|-6-66666666666666-7-77777777777777-6-66666666666666--------------------|
|-6-66666666666666------------------------------------------------------|
      pm               pm               pm               pm

J                    K
|------------------|-----------------------------------------------------|
|------------------|-----------------------------------------------------|
|------------------|-----------------------------------------------------|
|-9x8-6x8-11x8-6x8-|-8-----------8888-9-----------9999-------------------|
|-9---6----9---6---|-6666666666666666-7777777777777777-------------------|
|-9---6--------6---|-----------------------------------------------------|

The End, Now Heres The Order

A
B
C x2
D
E
F
G
C x2
D
E
H
I x2
J
K
J
K
F
K
F with 2 extra power chords
K x3
A

That should be right the order might be a little of but if yuo listen to the song you will get it



=--------------------=
6. Tentative
=--------------------=

(from bobbynogo)


                                   TENTATIVE
                         As recorded by System Of A Down
                         (From the 2005 Album HYPNOTIZE)

Words and Music by Daron Malakian
Transcribed by CUBErt

Gtr I (Db Ab Db Gb Bb Eb) - 'Untitled'
Gtr II (Db Ab Db Gb Bb Eb) - 'Untitled'
Gtr III (Db Ab Db Gb Bb Eb) - 'Untitled'
Gtr IV (Db Ab Db Gb Bb Eb) - 'Untitled'
Gtr V (Db Ab Db Gb Bb Eb) - 'Untitled'
Gtr VI (Db Ab Db Gb Bb Eb) - 'Untitled'

   Intro
    Q=160
    Gb5    N.C.            Gb5             N.C.
   4/4
    Gtr I
           PM------------|                 PM----------------|
     Q   E S S S S S S S S  E    +E   E  E S S S S S S S S S S
||----------------------------|---------------------------------||
||o---------------------------|--------------------------------o||
||--12--12-----------------12-|-(12)-12-12----------------------||
||--11--11-----------------11-|-(11)-11-11----------------------||
||o-10--10-----------------10-|-(10)-10-10---------------------o||
||---------0-0-0-0-0-0-0-0----|------------0-0-0-0-0-0-0-0-0-0--||


    Gb5    N.C.            Gb5             N.C.
           PM------------|                 PM----------------|
     Q   E S S S S S S S S  E    +E   E  E S S S S S S S S S S
||----------------------------|---------------------------------||
||o---------------------------|--------------------------------o||
||--12--12-----------------12-|-(12)-12-12----------------------||
||--11--11-----------------11-|-(11)-11-11----------------------||
||o-10--10-----------------10-|-(10)-10-10---------------------o||
||---------0-0-0-0-0-0-0-0----|------------0-0-0-0-0-0-0-0-0-0--||


   Verse
    Gb5    N.C.            Gb5             N.C.
           PM------------|                 PM----------------|
     Q   E S S S S S S S S  E    +E   E  E S S S S S S S S S S  4x
||----------------------------|---------------------------------||
||o---------------------------|--------------------------------o||
||--12--12-----------------12-|-(12)-12-12----------------------||
||--11--11-----------------11-|-(11)-11-11----------------------||
||o-10--10-----------------10-|-(10)-10-10---------------------o||
||---------0-0-0-0-0-0-0-0----|------------0-0-0-0-0-0-0-0-0-0--||


 Pre-Chorus
  D5                                  A5
  PM------------------|   PM------------------------------|   PM------|
  E E E E E E E E   E E E E E E E E   E E E E E E E E   E E E E E E E E
|-----------------|-----------------|-----------------|-----------------|
|-----------------|-----------------|-----------------|-----------------|
|-----------------|-----------------|-----------------|-----------------|
|-----------------|-----------------|-----------------|-----------------|
|-0-0---0-0-0-0-0-|-0-0---0-0-0-0-0-|-7-7---7-7-7-7-7-|-7-7---7-7-7-7-7-|
|-0-0---0-0-0-0-0-|-0-0---0-0-0-0-0-|-7-7---7-7-7-7-7-|-7-7---7-7-7-7-7-|


  F5
   PM-------------------------|     PM-------------
   E  E E  E  E  E  E  E    E  E E  E  E  E  E  E
|------------------------|------------------------|
|------------------------|------------------------|
|------------------------|------------------------|
|-10-10---10-10-10-10-10-|-10-10---10-10-10-10-10-|
|--8--8----8--8--8--8--8-|--8--8----8--8--8--8--8-|
|------------------------|------------------------|


  A5
 ---------------------|
  E E E E E E E E   E E E E E E E E
|-----------------|-----------------|
|-----------------|-----------------|
|-----------------|-----------------|
|-----------------|-----------------|
|-7-7-7-7-7-7-7-7-|-7-7-7-7-7-7-7-7-|
|-7-7-7-7-7-7-7-7-|-7-7-7-7-7-7-7-7-|


 Chorus
  D5                      Bb5
  W          +W           W          +W
|----------|------------|----------|--------|
|----------|------------|----------|--------|
|----------|------------|----------|--------|
|-0--------|-(0)--------|-8--------|-(8)----|
|-0--------|-(0)--------|-8--------|-(8)----|
|-0--------|-(0)--------|-8--------|-(8)----|


  A5                        F5             C5
  W          +H.      E E    H.       Q     W
|----------|--------------|--------------|-------|
|----------|--------------|--------------|-------|
|----------|--------------|-10-------10--|-------|
|-7--------|-(7)------7-7-|-10-------10--|-10----|
|-7--------|-(7)------7-7-|--8--------8--|-10----|
|-7--------|-(7)------7-7-|--------------|-10----|


   Pre-Verse
    Gb5    N.C.            Gb5             N.C.
           PM------------|                 PM----------------|
     Q   E S S S S S S S S  E    +E   E  E S S S S S S S S S S
||----------------------------|---------------------------------||
||o---------------------------|--------------------------------o||
||--12--12-----------------12-|-(12)-12-12----------------------||
||--11--11-----------------11-|-(11)-11-11----------------------||
||o-10--10-----------------10-|-(10)-10-10---------------------o||
||---------0-0-0-0-0-0-0-0----|------------0-0-0-0-0-0-0-0-0-0--||


   Verse
    Gb5    N.C.            Gb5             N.C.
           PM------------|                 PM----------------|
     Q   E S S S S S S S S  E    +E   E  E S S S S S S S S S S  4x





||----------------------------|---------------------------------||
||o---------------------------|--------------------------------o||
||--12--12-----------------12-|-(12)-12-12----------------------||
||--11--11-----------------11-|-(11)-11-11----------------------||
||o-10--10-----------------10-|-(10)-10-10---------------------o||
||---------0-0-0-0-0-0-0-0----|------------0-0-0-0-0-0-0-0-0-0--||


 Pre-Chorus
  D5                                  A5
  PM------------------|   PM------------------------------|   PM------|
  E E E E E E E E   E E E E E E E E   E E E E E E E E   E E E E E E E E
|-----------------|-----------------|-----------------|-----------------|
|-----------------|-----------------|-----------------|-----------------|
|-----------------|-----------------|-----------------|-----------------|
|-----------------|-----------------|-----------------|-----------------|
|-0-0---0-0-0-0-0-|-0-0---0-0-0-0-0-|-7-7---7-7-7-7-7-|-7-7---7-7-7-7-7-|
|-0-0---0-0-0-0-0-|-0-0---0-0-0-0-0-|-7-7---7-7-7-7-7-|-7-7---7-7-7-7-7-|


  F5
   PM-------------------------|     PM-------------
   E  E E  E  E  E  E  E    E  E E  E  E  E  E  E
|------------------------|------------------------|
|------------------------|------------------------|
|------------------------|------------------------|
|-10-10---10-10-10-10-10-|-10-10---10-10-10-10-10-|
|--8--8----8--8--8--8--8-|--8--8----8--8--8--8--8-|
|------------------------|------------------------|


  A5
 ---------------------|
  E E E E E E E E   E E E E E E E E
|-----------------|-----------------|
|-----------------|-----------------|
|-----------------|-----------------|
|-----------------|-----------------|
|-7-7-7-7-7-7-7-7-|-7-7-7-7-7-7-7-7-|
|-7-7-7-7-7-7-7-7-|-7-7-7-7-7-7-7-7-|


   Chorus
    D5                         Bb5
    W          +H     Q  E E   W          +H     E E E E
||-----------|---------------|----------|-----------------|
||o----------|---------------|----------|-----------------|
||-----------|---------------|----------|-----------------|
||--0--------|-(0)----0--0-0-|-8--------|-(8)----8-8-8-8--|
||o-0--------|-(0)----0--0-0-|-8--------|-(8)----8-8-8-8--|
||--0--------|-(0)----0--0-0-|-8--------|-(8)----8-8-8-8--|


  A5                         F5               C5
  W          +H     Q  E E    H.       E  E    W
|----------|---------------|----------------|--------||
|----------|---------------|----------------|-------o||
|----------|---------------|-10-------10-10-|--------||
|-7--------|-(7)----7--7-7-|-10-------10-10-|-10-----||
|-7--------|-(7)----7--7-7-|--8--------8--8-|-10----o||
|-7--------|-(7)----7--7-7-|----------------|-10-----||


 Interlude
  D5
   >
   PM----------------|
   W                  +W
|------------------|--------------------|
|------------------|--------------------|
|------------------|--------------------|
|--0---------------|--(0)---------------|
|--0---------------|--(0)---------------|
|--0---------------|--(0)---------------|
|

| Gtr II
|  H    E  E  +Q      +H     E  E  +Q
|------------------|--------------------|
|------------------|--------------------|
|-------9----------|---------9----------|
|---------10-(10)--|-(10)------10-(10)--|
|------------------|--------------------|
|--0---------------|--------------------|
|
| Gtr IV
|  W                  +H.          +Q
|-10---------------|-(10)---------(10)s=|
|------------------|--------------------|
|------------------|--------------------|
|------------------|--------------------|
|------------------|--------------------|
|------------------|--------------------|


  Fmaj7sus4/Bb
  Gtr III
   <
   Q    +H.               +W
|-13---(13)------------|-(13)-----------------|
|----------------------|----------------------|
|-10---(10)------------|-(10)-----------------|
|----------------------|----------------------|
|----------------------|----------------------|
|----------------------|----------------------|
|
|  E E   E  E E E E  E     E  E E E E E  E  E
|----------------------|----------------------|
|----------------------|----------------------|
|-------------9-----10-|----------9------9----|
|---------------8------|---8--------8-------8-|
|----8------8-----8----|------8-------8-------|
|--8-----8-------------|--------8-------------|
|
|  W                      +H.           +Q
|--6-------------------|--(6)-----------(6)---|
|----------------------|----------------------|
|----------------------|----------------------|
|----------------------|----------------------|
|----------------------|----------------------|
|----------------------|----------------------|


  A5
  Gtr II
   Q     Q   E E E  E     E  E E E E E E E
|---------------------|--------------------|
|---------------------|--------------------|
|------------9-----10-|----------9-----9---|
|--------------7------|---7--------7-----7-|
|--------7-------7----|--------7-----------|
|--7------------------|------7-------7-----|
|
| Gtr IV
|  >
| +W                     +W
|-(6)-----------------|--(6)---------------|
|---------------------|--------------------|
|---------------------|--------------------|
|---------------------|--------------------|
|---------------------|--------------------|
|---------------------|--------------------|
|
| Gtr III
|  <
|  Q    +H.              +W
|-15---(15)-----------|-(15)---------------|
|---------------------|--------------------|
|-12---(12)-----------|-(12)---------------|
|---------------------|--------------------|
|---------------------|--------------------|
|---------------------|--------------------|


  F                            A5
    E  E   E   E  E  E  E  E     Q      E   E   E   E  E  E
|----------------------------|------------------------------|
|----------------10----------|------------------------------|
|---------10--------10----10-|------------------9-----------|
|-----10------10-------10----|----------------------7-----7-|
|---8------------------------|----------7--------------7----|
|----------------------------|---7----------7---------------|
|
| Gtr V
|   E  E   E   E  E  E  E  E     E  E   E   E   E   E  E  E
|-----13------13----13----13-|-----17--17--17-(17)-17-17-17-|
|-/15-----15-----15----15----|-/18-----18--18-(18)-18-18-18-|
|----------------------------|------------------------------|
|----------------------------|------------------------------|
|----------------------------|------------------------------|
|----------------------------|------------------------------|
|
|   <                            <
|   Q     +H.                    Q     +H.
|--17----(17)----------------|--15----(15)------------------|
|----------------------------|------------------------------|
|--14----(14)----------------|--12----(12)------------------|
|----------------------------|------------------------------|
|----------------------------|------------------------------|
|----------------------------|------------------------------|


  N.C.
   H        E  E  +Q      +H     E  E  +Q
|----------------------|--------------------|
|----------------------|--------------------|
|-----------9----------|---------9----------|
|-------------10-(10)--|-(10)------10-(10)--|
|----------------------|--------------------|
|--0-------------------|--------------------|
|
| Gtr IV
|  W                      +H.          +Q
|-10-------------------|-(10)---------(10)s=|
|----------------------|--------------------|
|----------------------|--------------------|
|----------------------|--------------------|
|----------------------|--------------------|
|----------------------|--------------------|
|
|  <
|  Q   +H.                +W
|-10--(10)-------------|-(10)---------------|
|----------------------|--------------------|
|--7---(7)-------------|--(7)---------------|
|----------------------|--------------------|
|----------------------|--------------------|
|----------------------|--------------------|


  Fmaj7sus4/Bb
   E E   E  E E E E  E     E  E E E E E  E  E
|----------------------|----------------------|
|----------------------|----------------------|
|-------------9-----10-|----------9------9----|
|---------------8------|---8--------8-------8-|
|----8------8-----8----|------8-------8-------|
|--8-----8-------------|--------8-------------|
|
|  W                      +H.           +Q
|--6-------------------|--(6)-----------(6)---|
|----------------------|----------------------|
|----------------------|----------------------|
|----------------------|----------------------|
|----------------------|----------------------|
|----------------------|----------------------|
|

|  <
|  Q    +H.               +W
|-13---(13)------------|-(13)-----------------|
|----------------------|----------------------|
|-10---(10)------------|-(10)-----------------|
|----------------------|----------------------|
|----------------------|----------------------|
|----------------------|----------------------|


  A5
   Q     Q   E E E  E     E  E E E E E E E
|---------------------|--------------------|
|---------------------|--------------------|
|------------9-----10-|----------9-----9---|
|--------------7------|---7--------7-----7-|
|--------7-------7----|--------7-----------|
|--7------------------|------7-------7-----|
|
|  >
| +W                     +W
|-(6)-----------------|--(6)---------------|
|---------------------|--------------------|
|---------------------|--------------------|
|---------------------|--------------------|
|---------------------|--------------------|
|---------------------|--------------------|
|
|  <
|  Q    +H.              +W
|-12---(12)-----------|-(12)---------------|
|---------------------|--------------------|
|--9----(9)-----------|--(9)---------------|
|---------------------|--------------------|
|---------------------|--------------------|
|---------------------|--------------------|


  F                            A5
    E  E   E   E  E  E  E  E    Q      E   E  E  E  E  E
|----------------------------|---------------------------|
|----------------10----------|---------------------------|
|---------10--------10----10-|----------------9----------|
|-----10------10-------10----|-------------------7-----7-|
|---8------------------------|---------7------------7----|
|----------------------------|--7----------7-------------|
|
| Gtr V
|   E  E   E   E  E  E  E  E    E  E   E   E  E  E  E  E
|-/13-13--13--13-13-13-13-13-|-12-12--12--12-12-12-12-12-|
|-/13-13--13--13-13-13-13-13-|-13-13--13--13-13-13-13-13-|
|----------------------------|---------------------------|
|----------------------------|---------------------------|
|----------------------------|---------------------------|
|----------------------------|---------------------------|
|
|   <                           <
|   Q     +H.                   Q     +H.
|--13----(13)----------------|-12----(12)----------------|
|----------------------------|---------------------------|
|--10----(10)----------------|--9-----(9)----------------|
|----------------------------|---------------------------|
|----------------------------|---------------------------|
|----------------------------|---------------------------|


  N.C.
  Gtr VI
   E  E   E    E   E  E  E  E    E  E   E    E   E  E  E  E







|-----------------------------|-----------------------------|
|-----------------------------|-----------------------------|
|-10p=9-------10p==9----10p=9-|----10p==9-------10p=9----10p|
|--------12----------12-------|-12----------12--------12----|
|-----------------------------|-----------------------------|
|-----------------------------|-----------------------------|
|
| Gtr V
|  E  E   E    E   E  E  E  E    E  E   E    E   E  E  E  E
|-10-10--10---10--10-10-10-10-|-10-10--10---10--10-10-10-10-|
|-10-10--10---10--10-10-10-10-|-10-10--10---10--10-10-10-10-|
|-----------------------------|-----------------------------|
|-----------------------------|-----------------------------|
|-----------------------------|-----------------------------|
|-----------------------------|-----------------------------|
|
| Gtr IV
|  Q     +E   +E   H             Q     +E   +E   H
|-10----(10)-(10)s=5----------|-12----(12)-(12)s=5----------|
|-----------------------------|-----------------------------|
|-----------------------------|-----------------------------|
|-----------------------------|-----------------------------|
|-----------------------------|-----------------------------|
|-----------------------------|-----------------------------|


    E  E   E    E   E  E   E    E     E  E   E    E   E  E  E  E
|----------------------------------|-----------------------------|
|----------------------------------|-----------------------------|
|---9-----10p===9-----10p==9-------|-10p=9-------10p==9----10p=9-|
|-----12-----------12----------12--|--------12----------12-------|
|----------------------------------|-----------------------------|
|----------------------------------|-----------------------------|
|
|   E  E   E    E   E  E   E    E     E  E   E    E   E  E  E  E
|-/13-13--13---13--13-13--13---13--|-13-13--13---13--13-13-13-13-|
|-/13-13--13---13--13-13--13---13--|-13-13--13---13--13-13-13-13-|
|----------------------------------|-----------------------------|
|----------------------------------|-----------------------------|
|----------------------------------|-----------------------------|
|----------------------------------|-----------------------------|
|
|   Q     +E   +E   Q     +E   +E     Q     +E   +E   Q     Q
|--13----(13)-(13)s12----(12)-(12)s|=10----(10)-(10)s=8----12----|
|----------------------------------|-----------------------------|
|----------------------------------|-----------------------------|
|----------------------------------|-----------------------------|
|----------------------------------|-----------------------------|
|----------------------------------|-----------------------------|


  N.C.
   E  E  E  E  E  E  E  E     E   E  E  E  E  E  E  E
|-------------------------|---------------------------|
|-------------------------|---------------------------|
|-10p=9----10p=9----10p=9-|------10p=9----10p=9----10p|
|-------12-------12-------|--12--------12-------12----|
|-------------------------|---------------------------|
|-------------------------|---------------------------|
|
|  E  E  E  E  E  E  E  E     E   E  E  E  E  E  E  E
|-12-12-12-12-12-12-12-12-|--12--12-12-12-12-12-12-12-|
|-13-13-13-13-13-13-13-13-|--13--13-13-13-13-13-13-13-|
|-------------------------|---------------------------|
|-------------------------|---------------------------|
|-------------------------|---------------------------|
|-------------------------|---------------------------|
|
| Gtr IV
|  W                         +W
|-------------------------|---------------------------|
|-10----------------------|-(10)----------------------|
|-------------------------|---------------------------|
|-------------------------|---------------------------|
|-------------------------|---------------------------|
|-------------------------|---------------------------|


    E  E  E  E  E  E  E  E    E  E  E  E  E  E  E  E
|--------------------------|-------------------------|
|--------------------------|-------------------------|
|---9----10p=9----10p=9----|-10p=9----10p=9----10p=9-|
|-----12-------12-------12-|-------12-------12-------|
|--------------------------|-------------------------|
|--------------------------|-------------------------|
|
|   E  E  E  E  E  E  E  E    E  E  E  E  E  E  E  E
|-/13-13-13-13-13-13-13-13-|-12-12-12-12-12-12-12-12-|
|--13-13-13-13-13-13-13-13-|-13-13-13-13-13-13-13-13-|
|--------------------------|-------------------------|
|--------------------------|-------------------------|
|--------------------------|-------------------------|
|--------------------------|-------------------------|
|
|   W                         W
|--------------------------|-------------------------|
|--------------------------|-------------------------|
|--------------------------|-------------------------|
|--------------------------|-------------------------|
|--------------------------|-------------------------|
|--------------------------|-------------------------|


  N.C.
  Gtr VI
   E  E   E    E   E  E  E  E    E  E   E    E   E  E  E  E
|-----------------------------|-----------------------------|
|-----------------------------|-----------------------------|
|----10p==9-------10p=9----10p|==9-----10p===9-----10p=9----|
|-12----------12--------12----|----12-----------12-------12-|
|-----------------------------|-----------------------------|
|-----------------------------|-----------------------------|
|
| Gtr V
|  E  E   E    E   E  E  E  E    E  E   E    E   E  E  E  E
|-10-10--10---10--10-10-10-10-|-10-10--10---10--10-10-10-10-|
|-10-10--10---10--10-10-10-10-|-10-10--10---10--10-10-10-10-|
|-----------------------------|-----------------------------|
|-----------------------------|-----------------------------|
|-----------------------------|-----------------------------|
|-----------------------------|-----------------------------|
|
| Gtr IV
|  Q     +E   +E   H             Q     +E   +E   H
|-10----(10)-(10)s=5----------|-12----(12)-(12)s=5----------|
|-----------------------------|-----------------------------|
|-----------------------------|-----------------------------|
|-----------------------------|-----------------------------|
|-----------------------------|-----------------------------|
|-----------------------------|-----------------------------|


    E  E   E    E   E  E   E    E     E  E   E    E   E  E  E  E
|----------------------------------|-----------------------------|
|----------------------------------|-----------------------------|
|--10p=9-------10p==9-----10p===9--|----10p==9-------10p=9----10-|
|---------12----------12-----------|-12----------12--------12----|
|----------------------------------|-----------------------------|
|----------------------------------|-----------------------------|
|
|   E  E   E    E   E  E   E    E     E  E   E    E   E  E  E  E
|-/13-13--13---13--13-13--13---13--|-13-13--13---13--13-13-13-13-|
|-/13-13--13---13--13-13--13---13--|-13-13--13---13--13-13-13-13-|
|----------------------------------|-----------------------------|
|----------------------------------|-----------------------------|
|----------------------------------|-----------------------------|
|----------------------------------|-----------------------------|
|
|   Q     +E   +E   Q     +E   +E     Q     +E   +E   Q     Q



|--13----(13)-(13)s12----(12)-(12)s|=10----(10)-(10)s=8----12----|
|----------------------------------|-----------------------------|
|----------------------------------|-----------------------------|
|----------------------------------|-----------------------------|
|----------------------------------|-----------------------------|
|----------------------------------|-----------------------------|


  N.C.
   E  E  E  E  E  E  E  E     E   E  E  E  E  E  E  E
|-------------------------|---------------------------|
|-------------------------|---------------------------|
|----10p=9----10p=9----10p|===9-----10p=9----10p=9----|
|-12-------12-------12----|------12-------12-------12-|
|-------------------------|---------------------------|
|-------------------------|---------------------------|
|
|  E  E  E  E  E  E  E  E     E   E  E  E  E  E  E  E
|-12-12-12-12-12-12-12-12-|--12--12-12-12-12-12-12-12-|
|-13-13-13-13-13-13-13-13-|--13--13-13-13-13-13-13-13-|
|-------------------------|---------------------------|
|-------------------------|---------------------------|
|-------------------------|---------------------------|
|-------------------------|---------------------------|
|
| Gtr IV
|  W                         +W
|-------------------------|---------------------------|
|-10----------------------|-(10)----------------------|
|-------------------------|---------------------------|
|-------------------------|---------------------------|
|-------------------------|---------------------------|
|-------------------------|---------------------------|


    E  E  E  E  E  E  E  E    W
|--------------------------|-------|
|--------------------------|-------|
|--10p=9----10p=9----10p=9-|-------|
|--------12-------12-------|-12----|
|--------------------------|-------|
|--------------------------|-------|
|
|   E  E  E  E  E  E  E  E    W
|-/13-13-13-13-13-13-13-13-|-12----|
|--13-13-13-13-13-13-13-13-|-13----|
|--------------------------|-------|
|--------------------------|-------|
|--------------------------|-------|
|--------------------------|-------|
|
|   W                         W
|--------------------------|-------|
|--------------------------|-------|
|--------------------------|-------|
|--------------------------|-------|
|--------------------------|-------|
|--------------------------|-------|


   Verse
    Gb5    N.C.            Gb5             N.C.
    Gtr I
           PM------------|                 PM----------------|
     Q   E S S S S S S S S  E    +E   E  E S S S S S S S S S S  3x
||----------------------------|---------------------------------||
||o---------------------------|--------------------------------o||
||--12--12-----------------12-|-(12)-12-12----------------------||
||--11--11-----------------11-|-(11)-11-11----------------------||
||o-10--10-----------------10-|-(10)-10-10---------------------o||
||---------0-0-0-0-0-0-0-0----|------------0-0-0-0-0-0-0-0-0-0--||


  Gb5    N.C.            Gb5       D5  Gb5     D5  Gb5


         PM------------|           PM|         PM|
   Q   E S S S S S S S S  E    +E  E E  E  +E  E E  E
|---------------------------|-------------------------|
|---------------------------|-------------------------|
|-12--12-----------------12-|-(12)-----12-(12)-----12-|
|-11--11-----------------11-|-(11)-----11-(11)-----11-|
|-10--10-----------------10-|-(10)-0-0-10-(10)-0-0-10-|
|--------0-0-0-0-0-0-0-0----|------0-0---------0-0----|


       D5  Gb5     D5  Gb5       D5  Gb5
       PM|         PM|           PM|
   +E  E E  E  +E  E E  E    +E  E E  E  +H
|-------------------------|---------------------|
|-------------------------|---------------------|
|-(12)-----12-(12)-----12-|-(12)-----12-(12)----|
|-(11)-----11-(11)-----11-|-(11)-----11-(11)----|
|-(10)-0-0-10-(10)-0-0-10-|-(10)-0-0-10-(10)----|
|------0-0---------0-0----|------0-0------------|


   Out-Chorus
    D5                         Bb5
    W          +H     Q  E E   W          +H     E E E E
||-----------|---------------|----------|-----------------|
||o----------|---------------|----------|-----------------|
||-----------|---------------|----------|-----------------|
||--0--------|-(0)----0--0-0-|-8--------|-(8)----8-8-8-8--|
||o-0--------|-(0)----0--0-0-|-8--------|-(8)----8-8-8-8--|
||--0--------|-(0)----0--0-0-|-8--------|-(8)----8-8-8-8--|


  A5                          F5               C5
  W          +H     E E E E    H.       E  E    W
|----------|----------------|----------------|--------||
|----------|----------------|----------------|-------o||
|----------|----------------|-10-------10-10-|--------||
|-7--------|-(7)----7-7-7-7-|-10-------10-10-|-10-----||
|-7--------|-(7)----7-7-7-7-|--8--------8--8-|-10----o||
|-7--------|-(7)----7-7-7-7-|----------------|-10-----||


  A5                         F5                C5
  H    H      H    E E E E    H     Q   E  E    H     Q   E  E
|-----------|--------------|-----------------|-----------------|
|-----------|--------------|-----------------|-----------------|
|-----------|--------------|-10----10--10-10-|-----------------|
|-7----7----|-7----7-7-7-7-|-10----10--10-10-|-10----10--10-10-|
|-7----7----|-7----7-7-7-7-|--8-----8---8--8-|-10----10--10-10-|
|-7----7----|-7----7-7-7-7-|-----------------|-10----10--10-10-|


 Outro
  D5
  Gtr I
   >
   PM--------------------|
   W                      +W
|----------------------|--------------------|
|----------------------|--------------------|
|----------------------|--------------------|
|--0-------------------|--(0)---------------|
|--0-------------------|--(0)---------------|
|--0-------------------|--(0)---------------|
|
| Gtr II
|  H        E  E  +Q      +H     E  E  +Q
|----------------------|--------------------|
|----------------------|--------------------|
|-----------9----------|---------9----------|
|-------------10-(10)--|-(10)------10-(10)--|
|----------------------|--------------------|
|--0-------------------|--------------------|
|
| Gtr III

|  <
|  Q   +H.                +W
|-10--(10)-------------|-(10)---------------|
|----------------------|--------------------|
|--7---(7)-------------|--(7)---------------|
|----------------------|--------------------|
|----------------------|--------------------|
|----------------------|--------------------|


  Fmaj7sus4/Bb
  W                     W
|--------------------|-------------------|
|--------------------|-------------------|
|--------------------|-------------------|
|--------------------|-------------------|
|--------------------|-------------------|
|--------------------|-------------------|
|
| E E  E  E E E E  E    E  E E E E E E E
|--------------------|-------------------|
|--------------------|-------------------|
|-----------9-----10-|---------9-----9---|
|-------------8------|--8--------8-----8-|
|---8-----8-----8----|-----8-------8-----|
|-8----8-------------|-------8-----------|
|
| <
| Q   +H.              +W
|-5---(5)------------|-(5)---------------|
|--------------------|-------------------|
|-2---(2)------------|-(2)---------------|
|--------------------|-------------------|
|--------------------|-------------------|
|--------------------|-------------------|


  A5
  Gtr II
   Q    Q   E E E  E     E  E E E E E E E
|--------------------|--------------------|
|--------------------|--------------------|
|-----------9-----10-|----------9-----9---|
|-------------7------|---7--------7-----7-|
|-------7-------7----|--------7-----------|
|--7-----------------|------7-------7-----|
|
| Gtr III
|  <
|  Q   +H.              +W
|-12--(12)-----------|-(12)---------------|
|--------------------|--------------------|
|--9---(9)-----------|--(9)---------------|
|--------------------|--------------------|
|--------------------|--------------------|
|--------------------|--------------------|


  H.=H
  F                   A5
    Q    Q   Q   Q     Q    Q   Q  Q
|-------------------|-----------------|
|-----------10------|-----------------|
|---------------10--|-----------9-----|
|-------10----------|--------------7--|
|---8---------------|-------7---------|
|-------------------|--7--------------|
|
|                      <
|  +W                  Q   +H.
|-(12)--------------|-13--(13)--------|
|-------------------|-----------------|
|--(9)--------------|-10--(10)--------|
|-------------------|-----------------|
|-------------------|-----------------|
|-------------------|-----------------|


                             Q=65
  N.C.
  W             +W           +W           +W
|-------------|------------|------------|--------*|
|-------------|------------|------------|--------*|
|-------------|------------|------------|--------*|
|-------------|------------|------------|--------*|
|-------------|------------|------------|--------*|
|-0-----------|-(0)--------|-(0)--------|-(0)----*|
|
| <              >
| Q  +H.        +W           +W            W
|-5--(5)------|-(5)--------|-(5)--------|--------*|
|-------------|------------|------------|--------*|
|-2--(2)------|-(2)--------|-(2)--------|--------*|
|-------------|------------|------------|--------*|
|-------------|------------|------------|--------*|
|-------------|------------|------------|--------*|


Downloaded from www.taborama.com

================================================================================




=--------------------=
7. U-Fig
=--------------------=

(from r18)

Tabbed by:Ryan Kozicki
Email:rydeen@gmail.com

Tuning: Db Ab Db Gb Bb Eb

Intro 

|---------------------------------------|-------|
|---------------------------------------|       |
|7-7-7-7--9-9-9-9--10-10-10-10---10-9-5-| X2    |
|0-0-0-0--0-0-0-0--0--0--0--0----0--0-0-|       |  X2
|---------------------------------------|       |
|---------------------------------------|       |
                                                |
|--------------------|                          |
|--6---6-----5---5---|                          | 
|-3--33--3--3--33--3-|                          |
|--------------------|                          |
|--------------------|                          |
|--------------------|--------------------------|

Verse

|--------------------------|
|--------------------------|
|--------------------------|X8
|--------------------------|
|--------------------------|
|-0h2-2-2-2-2--3p2-2-2-2-2-|

Chorus

|-------------------------------------------|
|-------------------------------------------|
|-------------------------------------------|
|-7-7-7----5---7-7--------------------------|X2
|-5-5-5---3-3--5-5--6-5-6-5-6-5-6-5-6-5-6-5-|
|-------------------------------------------|

Verse

|--------------------------|
|--------------------------|
|--------------------------|X8
|--------------------------|
|--------------------------|
|-0h2-2-2-2-2--3p2-2-2-2-2-|

Chorus

|-------------------------------------------|
|-------------------------------------------|
|-------------------------------------------|
|-7-7-7----5---7-7--------------------------|X4
|-5-5-5---3-3--5-5--6-5-6-5-6-5-6-5-6-5-6-5-|
|-------------------------------------------|





|---------------------------------------|
|---------------------------------------|      
|7-7-7-7--9-9-9-9--10-10-10-10---10-9-5-| X2   
|0-0-0-0--0-0-0-0--0--0--0--0----0--0-0-|       
|---------------------------------------|       
|---------------------------------------|

|--------------------|
|--6---6-----5---5---|                          
|-3--33--3--3--33--3-|                          
|--------------------|                          
|--------------------|                          
|--------------------|

|---------------------------------------|
|---------------------------------------|      
|7-7-7-7--9-9-9-9--10-10-10-10---10-9-5-|    
|0-0-0-0--0-0-0-0--0--0--0--0----0--0-0-|       
|---------------------------------------|       
|---------------------------------------|

|--------------------|
|--6---6-----5---5---|                          
|-3--33--3--3--33--3-|                          
|--------------------|                          
|--------------------|X2                          
|--------------------| 

Bridge

|-----------------|
|-----------------|      
|-14--14-14-14-14-|    
|-----------------| X8      
|-12--12-12-12-12-|       
|-----------------|

Solo

(Guitar 1)
|------------------------------------------------------------|
|------------------------------------------------------------|      
|-14--14-14-14-14--14--14-14-14-14------------------15-15-14-|    
|-15--15-15-15-15--15--15-15-15-15-14--14-14-14-14-----------|       
|----------------------------------15--15-15-15-15--15-15-15-|       
|------------------------------------------------------------|

|-----------------------------------------------------------------|
|-----------------------------------------------------------------|      
|-----------------------------------------------------------------|    
|-15--15-15-15-15--15--15-15-15--15--15-15-15-15--15--15-15-15-15-|       
|-13--13-13-13-13--13--13-13-12--13--13-13-13-13--13--13-13-13-13-|       
|-----------------------------------------------------------------|

(Guitar 2)
|------------------------------------------------------------|
|-15-15-15-15-15-15-15-15-15-15-15-15-15-15-15-15-15-15\-----|      
|------------------------------------------------------------|    
|------------------------------------------------------------|       
|------------------------------------------------------------|       
|------------------------------------------------------------|

(Guitar 1)
|------------------------------------------------------------|
|------------------------------------------------------------|      
|-14--14-14-14-14--14--14-14-14-14------------------15-15-14-|    
|-15--15-15-15-15--15--15-15-15-15-14--14-14-14-14-----------|       
|----------------------------------15--15-15-15-15--15-15-15-|       
|------------------------------------------------------------|

|-----------------------------------------------------------------|
|-----------------------------------------------------------------|      
|-----------------------------------------------------------------|    
|-15--15-15-15-15--15--15-15-15--15--15-15-15-15--15--15-15-15-15-|       
|-13--13-13-13-13--13--13-13-12--13--13-13-13-13--13--13-13-13-13-|       
|-----------------------------------------------------------------|

(Guitar 2)
|--------------------------------------------|
|--------------------------------------------|      
|-15-15-14-14--12-------15-------------------|    
|----------------15-14-----12-12-------------|       
|--------------------------------15-13-12-13-|       
|--------------------------------------------|

Verse

|--------------------------|
|--------------------------|
|--------------------------|X4
|--------------------------|
|--------------------------|
|-0h2-2-2-2-2--3p2-2-2-2-2-|

(Guitar 1)
|------------------------------------------------------------|
|------------------------------------------------------------|      
|-14--14-14-14-14--14--14-14-14-14------------------15-15-14-|    
|-15--15-15-15-15--15--15-15-15-15-14--14-14-14-14-----------|       
|----------------------------------15--15-15-15-15--15-15-15-|       
|------------------------------------------------------------|


(Guitar 2)
|-17-17-17-17-17-17-    -18-18-18-18-18-18-
|-15-15-15-15-15-15-    -15-15-15-15-15-15-  
|-------------------X2  ------------------- X2   
|-------------------    -------------------    
|-------------------    -------------------    
|-------------------    -------------------

----------------|
-15-13----------|
-15-14-15-------|
-------17-------|
----------12-13-|
----------------|

Verse

|--------------------------|
|--------------------------|
|--------------------------|X4
|--------------------------|
|--------------------------|
|-0h2-2-2-2-2--3p2-2-2-2-2-|

Chorus

|-------------------------------------------|
|-------------------------------------------|
|-------------------------------------------|
|-7-7-7----5---7-7--------------------------|X4  
|-5-5-5---3-3--5-5--6-5-6-5-6-5-6-5-6-5-6-5-|   Play 6-5 (4X) at the end
|-------------------------------------------|

Outro

|---------------------------------------|
|---------------------------------------|       
|7-7-7-7--9-9-9-9--10-10-10-10---10-9-5-| X2    
|0-0-0-0--0-0-0-0--0--0--0--0----0--0-0-|       
|---------------------------------------|       
|---------------------------------------|

|-------------------------|
|-------------------------|                          
|---10----10-----9----9---|                          
|------8-----8-----8----8-|                          
|--------8-----------8----| X2                          
|-8------------8----------|

|--------------------------------------------------------------|
|--------------------------------------------------------------|                          
|---9-----9-----9-----9-----9-----9-----9----9---------9----14-|                          
|-----7-----7-----7-----7-----7-----7-----7----7------7----12--|                          
|-------7-----------7-----------7-----7-----7----7---7----12---|                           
|-7----------7------------7-------------------------7----12----|

End



=--------------------=
8. Holy Mountains
=--------------------=

(from shotgun joe)

System Of A Down
Holy Mountain (live from Big Day Out 2005)
Tuning - Drop D Flat
Tabbed By Shotgun Joe

This is one of the new songs that will be coming out on Hypnotize, the second of a 2 disc 
the second coming out on November 22, the first coming out on May 17th. I can't wait!

Intro (x2)
---------------------------------------------------------------|
---------------------------------------------------------------|
---------------------------------------------------------------|
-----0---0----0---0-------0----0-------0---0-------0---0-------|
----0---0----0---0---0---0----0-------0---0---0---0---0--------|
---0---0--8-7---7---7--12---12---8-7-5---5---5---3---3---------|

---------------------------------------------------------------|
---------------------------------------------------------------|
---------------------------------------------------------------|
--------0---0-------0-----------0---0--------------------------|
-------0---0---0---0-----------0---0---0-----------------------|
---/8-7---7---7---2---2-3-2---0---0---0------------------------|

Intro Part 2
---------------------------------------------------------------|
---------------------------------------------------------------|
---------------------------------------------------------------|
--0---0--0-0-0--8-7---7--7-7-7---7--12---12--12-12-12----------|
--0---0--0-0-0--8-7---7--7-7-7---7--12---12--12-12-12----------|
--0---0--0-0-0--8-7---7--7-7-7---7--12---12--12-12-12----------|

----------------------------------------------------------------|
----------------------------------------------------------------|
----------------------------------------------------------------|
--8-7-5---5--5-5-5---5--3---3--3-3-3---/8-7---7--7-7-7---7------|
--8-7-5---5--5-5-5---5--3---3--3-3-3---/8-7---7--7-7-7---7------|
--8-7-5---5--5-5-5---5--3---3--3-3-3---/8-7---7--7-7-7---7------|

----------------------------------------------------------------|
----------------------------------------------------------------|
----------------------------------------------------------------|
--2---2--2-2-2---3-2-0--0-0-0-0---------------------------------|
--2---2--2-2-2---3-2-0--0-0-0-0---------------------------------|
--2---2--2-2-2---3-2-0--0-0-0-0---------------------------------|

Part 3 (Played in a different beat)
-----------------------------------------------------------------|
-----------------------------------------------------------------|
-----------------------------------------------------------------|
--0---0---8-7---7---12---12---8-7-5---5---3---3---/8-7---7-------|
--0---0---8-7---7---12---12---8-7-5---5---3---3---/8-7---7-------|
--0---0---8-7---7---12---12---8-7-5---5---3---3---/8-7---7-------|

-----------|
-----------|
-----------|
--2---3-2--|
--2---3-2--|
--2---3-2--|

Verse Part 1 (only played in verse 1)



---------------------------------------------------------------|
---------------------------------------------------------------|
---------------------------------------------------------------|
---------------------------------------------------------------|
---------------------------------------------------------------|
--0---0---0---2---3---5---7--8--10--12-------------------------|

Part 2
--10---10---10---10---10---12---12---12---12---12---13---13---12--|
---10---10---10---10---10---10---10---10---10---10---10---10------|
----10---10---10---10---10---10---10---10---10---10---10---10-----|
------------------------------------------------------------------|
------------------------------------------------------------------|
------------------------------------------------------------------|

--15-15-15-15-15-15-15---13---13---12---12------------------------|
--------------------------10---10---10---10-----------------------|
---------------------------10---10---10---10----------------------|
------------------------------------------------------------------|
------------------------------------------------------------------|
------------------------------------------------------------------|

Chorus Part 1 (x2)
-----------------------------------------------------------------|
-----------------------------------------------------------------|
-----------------------------------------------------------------|
---8-8---8-8---8-8---7-8-7-10-8-7-7------------------------------|
---8-8---8-8---8-8---7-8-7-10-8-7-7------------------------------|
---8-8---8-8---8-8---7-8-7-10-8-7-7------------------------------|

Chorus Part 2 (x4)
-----------------------------------------------------------------|
-----------------------------------------------------------------|
-----------------------------------------------------------------|
---8---8--8-8-8-7--5-7--0---0--0-0-0--0--0-----------------------|
---8---8--8-8-8-7--5-7--0---0--0-0-0--0--0-----------------------|
---8---8--8-8-8-7--5-7--0---0--0-0-0--0--0-----------------------|

Bridge
-----------------------------------------------------------------|
-----------------------------------------------------------------|
-----------------------------------------------------------------|
-----------------------------------------------------------------|
-----------------------------------------------------------------|
--7---8---10---12-(x4)-7-8-10-12(x4)-----------------------------|

-----------------------------------------------------------------|
-----------------------------------------------------------------|
-----------------------------------------------------------------|
--7-8-10-12-7-8-10-12-7-8-10-12-7-8-10-12------------------------|
--7-8-10-12-7-8-10-12-7-8-10-12-7-8-10-12------------------------|
--7-8-10-12-7-8-10-12-7-8-10-12-7-8-10-12------------------------|

ORDER
Intro Part 1
Intro Part 2
Intro Part 3
Verse Part 1
Verse Part 2
Chorus Part 1
Chorus Part 2
Intro Part 2 (ok, so its not the intro anymore, sue me)
Verse Part 2
Chorus Part 1
Chorus Part 2
Bridge
Intro Part 2 (x3)
Chorus Part 1
Intro Part 2
Chorus Part 1
Chorus Part 2
Intro Part 2
Intro Part 3 (slower at end)
Intro Part 1 (slower to finish)


And thats it! Enjoy and email me if I have made any mistakes at 
I think its alright though.




=-------------------------=
9. Vincinity of Obscenity
=-------------------------=

(from bobbynogo)


                              VICINITY OF OBSCENITY
                         As recorded by System of a Down
                         (From the 2005 Album HYPNOTIZE)

Words and Music by System of a Down
Transcribed by Erik Dietrich

Gtr I (C# G# C# F# A# D#) - 'Untitled'
Gtr II (C# G# C# F# A# D#) - 'Untitled'
Gtr III (C# G# C# F# A# D#) - 'Lead'

 Intro
  Q=110
 4/4
  Gtr I
                                        |--3--|  |--3--| |-3-| |-3-|
  Wx3           S  S  S  S  S  S  S  S  S  S  S  S  S  S S S S S S S
|------------|--------------------------------------------------------|
|------------|--------------------------------------------------------|
|------------|--------------------------------------------------------|
|------------|--------------------------------------------------------|
|------------|--------------------------------------------------------|
|------------|-19-19S18-18S17-17S16-16-15S14S13S12S11S10S9S8S7S6S5S4--|


    N.C.
    PM----------------------------------------------------------------|
    S S S S S S S S S S S S S S S S  3x S S S S S S S S S S S S S S S S
||-----------------------------------||---------------------------------|
||o---------------------------------o||---------------------------------|
||-----------------------------------||---------------------------------|
||-----------------------------------||---------------------------------|
||o-----8-------7-----8---------6---o||-----8-------7-----8---------6---|
||--0-6---0-0-6---0-6---0-0-6-8---0--||-0-6---0-0-6---0-6---0-0-6-8---0-|


   Main Riff
    D5AbBbAbD5G5AbG5D5AbBbAbF5G5AbG5  D5AbBbAbD5G5AbG5D5AbBbAbF5G5AbG5
    S S S S S S S S S S S S S S S S   S S S S S S S S S S S S S S S S
||----------------------------------|----------------------------------||
||o---------------------------------|---------------------------------o||
||----------------------------------|----------------------------------||
||--0-6-8-6-0-5-6-5-0-6-8-6-3-5-6-5-|-0-6-8-6-0-5-6-5-0-6-8-6-3-5-6-5--||
||o-0-6-8-6-0-5-6-5-0-6-8-6-3-5-6-5-|-0-6-8-6-0-5-6-5-0-6-8-6-3-5-6-5-o||
||--0-6-8-6-0-5-6-5-0-6-8-6-3-5-6-5-|-0-6-8-6-0-5-6-5-0-6-8-6-3-5-6-5--||


   Interlude
    N.C.
   7/4
    PM----------------------------------------------|
    S S S S S S S S S S S S S S S S S S S S S S S S Q
||------------------------------------------------------||
||o----------------------------------------------------o||
||------------------------------------------------------||
||------------------------------------------------------||
||o-------------------5-4-----------5-4-----5-4--------o||
||--4-6-7-4-6-7-4-6-7-----7-6-4-6-7-----7-6-----7-6-4---||


   Verse
                                      1.,2.,3.

    D5AbBbAbD5G5AbG5D5AbBbAbF5G5AbG5   N.C.
   4/4
                                       PM----------------------|
    S S S S S S S S S S S S S S S S    S S S S S S S S S S S S Q
||----------------------------------||-----------------------------||
||o---------------------------------||----------------------------o||
||----------------------------------||-----------------------------||
||--0-6-8-6-0-5-6-5-0-6-8-6-3-5-6-5-||-----------------------------||
||o-0-6-8-6-0-5-6-5-0-6-8-6-3-5-6-5-||-5-4-----5-4-----5-4--------o||
||--0-6-8-6-0-5-6-5-0-6-8-6-3-5-6-5-||-----7-6-----7-6-----7-6-4---||


  4.
  N.C.
  PM------|   PM------|     PM------|   PM------|
  S S S S E e S S S S E e   S S S S E e S S S S E e
|-------------------------|-------------------------|
|-------------------------|-------------------------|
|-------------------------|-------------------------|
|-----------4-----------4-|-----------4-----------4-|
|-5-4---------5-4---------|-5-4---------5-4---------|
|-----7-6-4-------7-6-4---|-----7-6-4-------7-6-4---|


 Prechorus
  $
  F#G#A5F#G#A5F#G#A5F#G#A5    A5G#5 F#G#A5    A5G#F#5   A5G#F#5
  PM------------------------------------------------------|
  S S S S S S S S S S S S S S S S   S S S S S S S S S S S S Q
|---------------------------------|----------------------------|
|---------------------------------|----------------------------|
|---------------------------------|----------------------------|
|---------------------------------|-------------------------4--|
|-4-6-7-4-6-7-4-6-7-4-6-7-5-4-7-6-|-4-6-7-5-4-7-6-4-5-4-7-6-4--|
|-4-6-7-4-6-7-4-6-7-4-6-7-----7-6-|-4-6-7-----7-6-4-----7-6-4--|


  F#G#A5F#G#A5F#G#A5F#G#A5    A5G#5 F#G#A5    A5G#F#5   A5G#F#5
  PM--------------------------------------------------------|
  S S S S S S S S S S S S S S S S   S S S S S S S S S S S S q
|---------------------------------|----------------------------|
|---------------------------------|----------------------------|
|---------------------------------|----------------------------|
|---------------------------------|----------------------------|
|-4-6-7-4-6-7-4-6-7-4-6-7-5-4-7-6-|-4-6-7-5-4-7-6-4-5-4-7-6-4--|
|-4-6-7-4-6-7-4-6-7-4-6-7-----7-6-|-4-6-7-----7-6-4-----7-6-4--|


   Chorus
                                                       To Coda
    G5 A5      B5     Bm          B5 A5      G5     Gmaj7
    Gtr II
    E. S +S  S E +Q    S   S  E   E. S +S  S E +Q    S   S  E   4x
||------------------------------|--------------------7---7------||
||o--------------------7---7----|--------------------7---7-----o||
||---------------------7---7----|--------------------7---7------||
||--------------------(9)-(9)---|-------------------(5)-(5)-----||
||o-5--7-(7)---9-(9)------------|-9--7-(7)---5-(5)-------------o||
||--5--7-(7)---9-(9)------------|-9--7-(7)---5-(5)--------------||


   Interlude
    N.C.
   7/4
    Gtr I
    PM----------------------------------------------|
    S S S S S S S S S S S S S S S S S S S S S S S S Q
||------------------------------------------------------||
||o----------------------------------------------------o||
||------------------------------------------------------||
||------------------------------------------------------||
||o-------------------5-4-----------5-4-----5-4--------o||
||--4-6-7-4-6-7-4-6-7-----7-6-4-6-7-----7-6-----7-6-4---||



 Verse
  D5AbBbAbD5G5AbG5D5AbBbAbF5G5AbG5   N.C.
 4/4
                                     PM----------------------|
  S S S S S S S S S S S S S S S S    S S S S S S S S S S S S Q
|---------------------------------||-----------------------------|
|---------------------------------||-----------------------------|
|---------------------------------||-----------------------------|
|-0-6-8-6-0-5-6-5-0-6-8-6-3-5-6-5-||-----------------------------|
|-0-6-8-6-0-5-6-5-0-6-8-6-3-5-6-5-||-5-4-----5-4-----5-4---------|
|-0-6-8-6-0-5-6-5-0-6-8-6-3-5-6-5-||-----7-6-----7-6-----7-6-4---|


                                                  D.S. al Coda
  D5AbBbAbD5G5AbG5D5AbBbAbF5G5AbG5    N.C.
                                      PM------|   PM------|
  S S S S S S S S S S S S S S S S     S S S S E e S S S S E e
|---------------------------------||----------------------------||
|---------------------------------||o--------------------------o||
|---------------------------------||----------------------------||
|-0-6-8-6-0-5-6-5-0-6-8-6-3-5-6-5-||------------4-----------4---||
|-0-6-8-6-0-5-6-5-0-6-8-6-3-5-6-5-||o-5-4---------5-4----------o||
|-0-6-8-6-0-5-6-5-0-6-8-6-3-5-6-5-||------7-6-4-------7-6-4-----||


  &
  G5 A5      B5     Bm          B5 A5      G5
                               2/4
  Gtr II
  E. S +S  S E +Q    S   S  E   E. S +S  S E
|-----------------------------|--------------|
|--------------------7---7----|--------------|
|--------------------7---7----|--------------|
|-------------------(9)-(9)---|--------------|
|-5--7-(7)---9-(9)------------|-9--7-(7)---5-|
|-5--7-(7)---9-(9)------------|-9--7-(7)---5-|


                      A5
 4/4
      <               <
  +E  E E E E E E E   E E E E E E E E
|-------------------|-----------------|
|-------------------|-----------------|
|-------------------|-----------------|
|-------------------|-----------------|
|-(5)-5-5-5-5-5-5-5-|-7-7-7-7-7-7-7-7-|
|-(5)-5-5-5-5-5-5-5-|-7-7-7-7-7-7-7-7-|


 Guitar Solo
  D5   AbBbAbD5     G5AbG5D5AbBbAbF5G5AbG5  D5AbBbAbD5G5AbG5D5AbBbAbF5G5AbG5
  Gtr III
    Q           Q         H                 W
|-----------------------------------------|----------------------------------|
|-/15\-------/(15)\-----------------------|----------------------------------|
|-----------------------------------------|----------------------------------|
|-----------------------------------------|----------------------------------|
|-----------------------------------------|----------------------------------|
|-----------------------------------------|----------------------------------|
|
| Gtr I
|   S  S S S    S   S S S S S S S S S S S   S S S S S S S S S S S S S S S S
|-----------------------------------------|----------------------------------|
|-----------------------------------------|----------------------------------|
|-----------------------------------------|----------------------------------|
|---0--6-8-6----0---5-6-5-0-6-8-6-3-5-6-5-|-0-6-8-6-0-5-6-5-0-6-8-6-3-5-6-5--|
|---0--6-8-6----0---5-6-5-0-6-8-6-3-5-6-5-|-0-6-8-6-0-5-6-5-0-6-8-6-3-5-6-5--|
|---0--6-8-6----0---5-6-5-0-6-8-6-3-5-6-5-|-0-6-8-6-0-5-6-5-0-6-8-6-3-5-6-5--|


  D5   AbBbAbD5     G5AbG5D5   AbBbAbF5     G5AbG5
    Q           Q           Q           Q



|-------------------------------------------------|
|-/15\-------/(15)\-------/15\-------/(15)\-------|
|-------------------------------------------------|
|-------------------------------------------------|
|-------------------------------------------------|
|-------------------------------------------------|
|
|   S  S S S    S   S S S   S  S S S    S   S S S
|-------------------------------------------------|
|-------------------------------------------------|
|-------------------------------------------------|
|---0--6-8-6----0---5-6-5---0--6-8-6----3---5-6-5-|
|---0--6-8-6----0---5-6-5---0--6-8-6----3---5-6-5-|
|---0--6-8-6----0---5-6-5---0--6-8-6----3---5-6-5-|


  D5    AbBbAbD5      G5AbG5D5    AbBbAbF5      G5AbG5
   Q            Q            Q            Q
|------------------------------------------------------|
|-15b17-------(15)b17-------18b20-------(18)b20--------|
|------------------------------------------------------|
|------------------------------------------------------|
|------------------------------------------------------|
|------------------------------------------------------|
|
|  S    S S S   S     S S S  S    S S S   S     S S S
|------------------------------------------------------|
|------------------------------------------------------|
|------------------------------------------------------|
|--0----6-8-6---0-----5-6-5--0----6-8-6---3-----5-6-5--|
|--0----6-8-6---0-----5-6-5--0----6-8-6---3-----5-6-5--|
|--0----6-8-6---0-----5-6-5--0----6-8-6---3-----5-6-5--|


  D5    AbBbAbD5      G5AbG5D5    AbBbAbF5      G5AbG5
   Q            Q            Q            Q
|-----------------------------------------------------|
|-20b22-------(20)b22-------20b22-------(20)b22-------|
|-----------------------------------------------------|
|-----------------------------------------------------|
|-----------------------------------------------------|
|-----------------------------------------------------|
|
|  S    S S S   S     S S S  S    S S S   S     S S S
|-----------------------------------------------------|
|-----------------------------------------------------|
|-----------------------------------------------------|
|--0----6-8-6---0-----5-6-5--0----6-8-6---3-----5-6-5-|
|--0----6-8-6---0-----5-6-5--0----6-8-6---3-----5-6-5-|
|--0----6-8-6---0-----5-6-5--0----6-8-6---3-----5-6-5-|


  D5    AbBbAbD5      G5AbG5D5    AbBbAbF5      G5AbG5
   Q            Q            Q            Q
|------------------------------------------------------|
|-20b22-------(20)b22-------20b22-------(20)b22--------|
|------------------------------------------------------|
|------------------------------------------------------|
|------------------------------------------------------|
|------------------------------------------------------|
|
|  S    S S S   S     S S S  S    S S S   S     S S S
|------------------------------------------------------|
|------------------------------------------------------|
|------------------------------------------------------|
|--0----6-8-6---0-----5-6-5--0----6-8-6---3-----5-6-5--|
|--0----6-8-6---0-----5-6-5--0----6-8-6---3-----5-6-5--|
|--0----6-8-6---0-----5-6-5--0----6-8-6---3-----5-6-5--|


  D5    AbBbAbD5      G5AbG5D5    AbBbAbF5      G5AbG5
   Q            Q            Q            Q




|-----------------------------------------------------|
|-20b22-------(20)b22-------20b22-------(20)b22-------|
|-----------------------------------------------------|
|-----------------------------------------------------|
|-----------------------------------------------------|
|-----------------------------------------------------|
|
|  S    S S S   S     S S S  S    S S S   S     S S S
|-----------------------------------------------------|
|-----------------------------------------------------|
|-----------------------------------------------------|
|--0----6-8-6---0-----5-6-5--0----6-8-6---3-----5-6-5-|
|--0----6-8-6---0-----5-6-5--0----6-8-6---3-----5-6-5-|
|--0----6-8-6---0-----5-6-5--0----6-8-6---3-----5-6-5-|


  D5    AbBbAbD5      G5AbG5D5    AbBbAbF5      G5AbG5
   Q            Q            Q            Q
|------------------------------------------------------|
|-20b22r======(20)b22r======20b22r======(20)b22r=======|
|------------------------------------------------------|
|------------------------------------------------------|
|------------------------------------------------------|
|------------------------------------------------------|
|
|  S    S S S   S     S S S  S    S S S   S     S S S
|------------------------------------------------------|
|------------------------------------------------------|
|------------------------------------------------------|
|--0----6-8-6---0-----5-6-5--0----6-8-6---3-----5-6-5--|
|--0----6-8-6---0-----5-6-5--0----6-8-6---3-----5-6-5--|
|--0----6-8-6---0-----5-6-5--0----6-8-6---3-----5-6-5--|


   Outro
                                     1.,2.,3.
    F#G#A5F#G#A5F#G#A5F#G#A5    A5G#5 F#G#A5    A5G#F#5   A5G#F#5
    PM------------------------------------------------------|
    S S S S S S S S S S S S S S S S   S S S S S S S S S S S S Q   3x
||----------------------------------|-----------------------------||
||o---------------------------------|----------------------------o||
||----------------------------------|-----------------------------||
||----------------------------------|-------------------------4---||
||o-4-6-7-4-6-7-4-6-7-4-6-7-5-4-7-6-|-4-6-7-5-4-7-6-4-5-4-7-6-4--o||
||--4-6-7-4-6-7-4-6-7-4-6-7-----7-6-|-4-6-7-----7-6-4-----7-6-4---||


  4.
  F#G#A5    A5G#F#5   A5G#F#5
  PM--------------------|
  S S S S S S S S S S S S q    W
|----------------------------|------*|
|----------------------------|------*|
|----------------------------|------*|
|-------------------------4--|------*|
|-4-6-7-5-4-7-6-4-5-4-7-6-4--|------*|
|-4-6-7-----7-6-4-----7-6-4--|------*|


Downloaded from www.taborama.com

================================================================================




=--------------------=
10. She's Like Heroin
=--------------------=

(from bobbynogo)


Again another tab from another web site
Just thought all of you might like this
I take no credit

                                SHE'S LIKE HEROIN
                         As recorded by System Of A Down
                         (From the 2005 Album HYPNOTIZE)

Words and Music by Daron Malakian
Transcribed by CUBErt

Gtr I (Db Ab Db Gb Bb Eb) - 'Untitled'
Gtr II (Db Ab Db Gb Bb Eb) - 'Untitled'
Gtr III (Db Ab Db Gb Bb Eb) - 'Untitled'

   Intro
    Q=195
    N.C.
   4/4
    Gtr I
    PM--------------------------------------------------------------|
    q  E E E E E E   q  E E E E E E   q  E E E E E E   q  E E E E E E   4x
||-----------------|----------------|----------------|------------------||
||o----------------|----------------|----------------|-----------------o||
||-----7-5---------|----7-5---------|----5-4---------|----5-4-----------||
||---------6-5-6---|--------6-5-6---|--------5-4-5---|--------5-4-5-----||
||o-3------------0-|-3------------0-|-2------------0-|-2------------0--o||
||-----------------|----------------|----------------|------------------||


   Verse
    $
    C#5/G#                  G#
    Gtr II
     Q   E  E  E  E  E  E    Q   E  E  E  E  E  E
||------------------------|-----------------------|
||o-----------------------|-----------------------|
||------------------------|-----------------------|
||--11--11-11-11-11-11-11-|-10--10-10-10-10-10-10-|
||o-11--11-11-11-11-11-11-|-11--11-11-11-11-11-11-|
||------------------------|-----------------------|


  C5/G                    G
   Q   E  E  E  E  E  E    Q   E  E  E  E  E  E   4x
|-----------------------|-------------------------||
|-----------------------|------------------------o||
|-----------------------|-------------------------||
|-10--10-10-10-10-10-10-|--9---9--9--9--9--9--9---||
|-10--10-10-10-10-10-10-|-10--10-10-10-10-10-10--o||
|-----------------------|-------------------------||


   Chorus
                                                                     D.S.
      B5   A5 B5   C5 D5 C5 D5 C5 B5       B5   A5 B5   C5 D5 C5 D5 C5 B5
    Gtr I
      PM----------------------------|      PM----------------------------|
    E q  E q  q     E  E  E  E  E E q    E q  E q  q     E  E  E  E  E E q





||---------------|---------------------|--------------|-----------------------||
||o--------------|---------------------|--------------|----------------------o||
||---------------|---------------------|--------------|-----------------------||
||---------------|---------------------|--------------|-----------------------||
||o---9--9-7--9--|-10-12-10-12-10-9-9--|---9--9-7--9--|-10-12-10-12-10-9-9---o||
||----9--9-7--9--|-10-12-10-12-10-9-9--|---9--9-7--9--|-10-12-10-12-10-9-9----||


   Bridge
    N.C.
    PM--------------------------------------------------------------|
    q  E E E E E E   q  E E E E E E   q  E E E E E E   q  E E E E E E
||-----------------|----------------|----------------|------------------||
||o----------------|----------------|----------------|-----------------o||
||-----7-5---------|----7-5---------|----5-4---------|----5-4-----------||
||---------6-5-6---|--------6-5-6---|--------5-4-5---|--------5-4-5-----||
||o-3------------0-|-3------------0-|-2------------0-|-2------------0--o||
||-----------------|----------------|----------------|------------------||


    C5/G
    Gtr III
     E  E  E  E  E  E  E  E    E  E  E  E  E  E  E  E
||--------------------------|-------------------------|
||o-------------------------|-------------------------|
||--------------------------|-------------------------|
||--10-10-10-10-10-10-10-10-|-10-10-10-10-10-10-10-10-|
||o-10-10-10-10-10-10-10-10-|-10-10-10-10-10-10-10-10-|
||--------------------------|-------------------------|


  B5/F#
  E E E E E E E E   E E E E E E E E
|-----------------|-------------------||
|-----------------|------------------o||
|-----------------|-------------------||
|-9-9-9-9-9-9-9-9-|-9-9-9-9-9-9-9-9---||
|-9-9-9-9-9-9-9-9-|-9-9-9-9-9-9-9-9--o||
|-----------------|-------------------||


    C5/G
      E  E  E  E  E  E  E  E    E  E  E  E  E  E  E  E
||--/16-16-16-16-16-16-16-16-|-16-16-16-16-16-16-16-16-|
||o-/16-16-16-16-16-16-16-16-|-16-16-16-16-16-16-16-16-|
||---------------------------|-------------------------|
||---10-10-10-10-10-10-10-10-|-10-10-10-10-10-10-10-10-|
||o--10-10-10-10-10-10-10-10-|-10-10-10-10-10-10-10-10-|
||---------------------------|-------------------------|


  B5/F#
   E  E  E  E  E  E  E  E    E  E  E  E  E  E  E  E
|-15-15-15-15-15-15-15-15-|-15-15-15-15-15-15-15-15---||
|-15-15-15-15-15-15-15-15-|-15-15-15-15-15-15-15-15--o||
|-------------------------|---------------------------||
|--9--9--9--9--9--9--9--9-|--9--9--9--9--9--9--9--9---||
|--9--9--9--9--9--9--9--9-|--9--9--9--9--9--9--9--9--o||
|-------------------------|---------------------------||


   Chorus
    C5
    Gtr I
     Q   E  E  E  E  E  E    Q   E  E  E  E  E  E
||------------------------|-----------------------|
||o-----------------------|-----------------------|
||------------------------|-----------------------|
||--10--10-10-10-10-10-10-|-10--10-10-10-10-10-10-|
||o-10--10-10-10-10-10-10-|-10--10-10-10-10-10-10-|
||--10--10-10-10-10-10-10-|-10--10-10-10-10-10-10-|


  B5
  Q  E E E E E E   Q  E E E E E E

|----------------|-----------------|
|----------------|-----------------|
|----------------|-----------------|
|-9--9-9-9-9-9-9-|-9--9-9-9-9-9-9--|
|-9--9-9-9-9-9-9-|-9--9-9-9-9-9-9--|
|-9--9-9-9-9-9-9-|-9--9-9-9-9-9-9--|


  A5                                G5
  Q  E E E E E E   Q  E E E E E E   Q  E E E E E E   Q  E E E E E E
|----------------|----------------|----------------|-----------------||
|----------------|----------------|----------------|----------------o||
|----------------|----------------|----------------|-----------------||
|-7--7-7-7-7-7-7-|-7--7-7-7-7-7-7-|-5--5-5-5-5-5-5-|-5--5-5-5-5-5-5--||
|-7--7-7-7-7-7-7-|-7--7-7-7-7-7-7-|-5--5-5-5-5-5-5-|-5--5-5-5-5-5-5-o||
|-7--7-7-7-7-7-7-|-7--7-7-7-7-7-7-|-5--5-5-5-5-5-5-|-5--5-5-5-5-5-5--||


   Out-Chorus
    C5
     Q   E  E  E  E  E  E    Q   E  E  E  E  E  E
||------------------------|-----------------------|
||o-----------------------|-----------------------|
||------------------------|-----------------------|
||--10--10-10-10-10-10-10-|-10--10-10-10-10-10-10-|
||o-10--10-10-10-10-10-10-|-10--10-10-10-10-10-10-|
||--10--10-10-10-10-10-10-|-10--10-10-10-10-10-10-|
|
|   Gtr II
|    Q   Q     Q     Q       Q   Q     Q     Q
||--10--------10----------|-10--------10----------|
||o-----10----------10----|-----10----------10----|
||------------------------|-----------------------|
||------------------------|-----------------------|
||o-----------------------|-----------------------|
||------------------------|-----------------------|


  B5
   Q   E E  E E  E E    Q   E E  E E  E E
|--------------------|---------------------|
|--------------------|---------------------|
|--------------------|---------------------|
|--9---9-9--9-9--9-9-|--9---9-9--9-9--9-9--|
|--9---9-9--9-9--9-9-|--9---9-9--9-9--9-9--|
|--9---9-9--9-9--9-9-|--9---9-9--9-9--9-9--|
|
|  Q   Q    Q    Q      Q   Q    Q    Q
|-10-------10--------|-10-------10---------|
|-----10--------10---|-----10--------10----|
|--------------------|---------------------|
|--------------------|---------------------|
|--------------------|---------------------|
|--------------------|---------------------|


  A5
   Q   E E  E E  E E    Q   E E  E E  E E
|--------------------|--------------------|
|--------------------|--------------------|
|--------------------|--------------------|
|--7---7-7--7-7--7-7-|--7---7-7--7-7--7-7-|
|--7---7-7--7-7--7-7-|--7---7-7--7-7--7-7-|
|--7---7-7--7-7--7-7-|--7---7-7--7-7--7-7-|
|
|  Q   Q    Q    Q      Q   Q    Q    Q
|-10-------10--------|-10-------10--------|
|-----10--------10---|-----10--------10---|
|--------------------|--------------------|
|--------------------|--------------------|
|--------------------|--------------------|
|--------------------|--------------------|


  G5

   Q   E E  E E  E E    Q   E E  E E  E E
|--------------------|---------------------||
|--------------------|--------------------o||
|--------------------|---------------------||
|--5---5-5--5-5--5-5-|--5---5-5--5-5--5-5--||
|--5---5-5--5-5--5-5-|--5---5-5--5-5--5-5-o||
|--5---5-5--5-5--5-5-|--5---5-5--5-5--5-5--||
|
|  Q   Q    Q    Q      Q   Q    Q    Q
|-10-------10--------|-10-------10---------||
|-----10--------10---|-----10--------10---o||
|--------------------|---------------------||
|--------------------|---------------------||
|--------------------|--------------------o||
|--------------------|---------------------||


 Outro
                                                      H.=H
  N.C.
  Gtr II
   Q   Q   Q   Q     Q   Q   Q   Q     Q  Q   Q  Q    Q  Q  Q  Q
|-----------------|-----------------|---------------|-------------|
|-----------------|-----------------|---------------|-------------|
|-----------------|-----------------|---------------|-------------|
|-----------------|-----------------|---------------|-------------|
|-11------11------|-10------10------|-10-----10-----|-9-----9-----|
|-----10------10--|-----10------10--|-----9------9--|----9-----9--|


                                            Q=100
  N.C.
  Q  Q  Q  Q    Q  Q  Q  Q    Q  Q  Q  Q    Q   Q   Q  Q
|-------------|-------------|-------------|---------------*|
|-------------|-------------|-------------|---------------*|
|-------------|-------------|-------------|---------------*|
|-------------|-------------|-------------|---------------*|
|-9-----9-----|-7-----7-----|-7-----7-----|-5--(5)--5-----*|
|----7-----7--|----7-----7--|----5-----5--|-----5------5--*|

END


=--------------------=
11. Lonely Day
=--------------------=

(from unregistered)


Tuning = drop Db   C# g# c# f# a# d#

D#|-------------------------------------------------------------------------|
A#|------1-----------0------------1------------0----------------------------|
F#|----2---2-------2---2--------0---0--------1---1--------------------------|
C#|--2-------0---2-------2----2-------2----0-------0------------------------|
G#|0------------------------3-----------------------------------------------|
C#|------------3-------------------------2----------------------------------|


D#|-------------------------------------------------------------------------|
A#|-------------------------------------------------------------------------|
F#|-2--2-2-2--------------5--5-5-5------------------------------------------|
C#|-2--2-2-2---3--3-3-3---5--5-5-5---2--2-2-2-------------------------------|
G#|-0--0-0-0---3--3-3-3---3--3-3-3---2--2-2-2-------------------------------|
C#|------------3--3-3-3--------------2--2-2-2-------------------------------|


D#|-------------------------------------------------------------------------|
A#|------1-----------0------------1------------0----------------------------|
F#|----2---2-------2---2--------0---0--------1---1--------------------------|
C#|--2-------0---2-------2----2-------2----0-------0------------------------|
G#|0------------------------3-----------------------------------------------|
C#|------------3-------------------------2----------------------------------|


D#|--12----12--------------17-17-16v----------------------------------------|
A#|-----13----13-13/15------------------------------------------------------|
F#|-------------------------------------------------------------------------|
C#|-------------------------------------------------------------------------|
G#|-------------------------------------------------------------------------|
C#|-------------------------------------------------------------------------|


D#|-------------------------------------------------------------------------|
A#|-------------------------------------------------------------------------|
F#|-------------------------------------------------------------------------|
C#|-3--3-3-3---2--2-2-2---5--5-5-5---7--7-7-7-----x2------------------------|
G#|-3--3-3-3---2--2-2-2---5--5-5-5---7--7-7-7-------------------------------|
C#|-3--3-3-3---2--2-2-2---5--5-5-5---7--7-7-7-------------------------------|


D#|--------------------12---12-10-8--7--8--7----8--7---10-------------------|
A#|--------------------13---13-12-10-8--10-8----10-8-9-12-------------------|
F#|--------------------------------------------------9----------------------|
C#|3-x12--2-x12-------------------------------------------------------------|
G#|3------2-----------------------------------------------------------------|
C#|3------2-----------------------------------------------------------------|
  .pm    .pm

D#|-----------10------------12------------13------------15------------------|
A#|--13\12/13-12---13\12/13-13---13\12/13-15---13\12/13-17------------------|
F#|--14\13/14------14\13/14------14\13/14------14\13/14---------------------|
C#|-------------------------------------------------------------------------|
G#|-------------------------------------------------------------------------|
C#|-------------------------------------------------------------------------|


D#|--17-15-13-15-13-12-13-12-10-12-10-8-------------19--| incoherent doodling?
A#|--18-17-15-17-15-13-15-13-12-13-12-10--10v-------20--|
F#|-----------------------------------------------------|
C#|-----------------------------------------------------|
G#|-----------------------------------------------------|
C#|-----------------------------------------------------|


D#|-------------------------------------------------------------------------|
A#|-------------------------------------------------------------------------|
F#|-2--2-2-2--------------5--5-5-5------------------------------------------|
C#|-2--2-2-2---3--3-3-3---5--5-5-5---2--2-2-2-------------------------------|
G#|-0--0-0-0---3--3-3-3---3--3-3-3---2--2-2-2-------------------------------|
C#|------------3--3-3-3--------------2--2-2-2-------------------------------|


D#|-------------------------------------------------------------------------|
A#|------1-----------0------------1------------0----------------------------|
F#|----2---2-------2---2--------0---0--------1---1--------------------------|
C#|--2-------0---2-------2----2-------2----0-------0------------------------|
G#|0------------------------3-----------------------------------------------|
C#|------------3-------------------------2----------------------------------|


D#|-------------------------------------------------------------------------|
A#|-------------10----------------------------------------------------------|
F#|---10--9-----------------------------------------------------------------|
C#|-------------------------------------------------------------------------|
G#|-----7---7---------------------------------------------------------------|
C#|-------------------------------------------------------------------------|

Fourth tab

Chewablemoo




=--------------------=
12. Soldier Side
=--------------------=

(from shotgun joe)

TABBED BY shotgunjoe (My account is screwed up and I cant log on)
This is a tab for the full version of Soldier Side, and Lonely Day ends on the siren
that ended Soldier Side intro on Mezmerize. This is a masterpiece of a song, and it
is in drop Db (Db Ab Db Gb Bb Eb) tuning.

INTRO
---------------------------------------------------|
---------------------------------------------------|
----12----12----12----12----10----10----10----10---|
---0--0--0--0--0--0--0--0--0--0--0--0--0--0--0--0--|
-13----13----13----13----12----12----12----12------|
---------------------------------------------------|

------------------------------------------------------|
------------------------------------------------------|
-----9------9------9------9-----10----10----10----10--|
---0---0--0---0--0---0--0---0--0--0--0--0--0--0--0--0-|
-12-----12-----12-----12-----12----12----12----12-----|
------------------------------------------------------|

This part is only played in the intro:
-------------------------------------------------------------|
-------------------------------------------------------------|
----12----12-------15----14-12----10----10-------12----12-10-|
---0--0--0--0--------------------0--0--0--0------------------|
-13----13----13-------13-------12----12----12-------12-------|
-------------------------------------------------------------|

------------------------------------------------------|
------------------------------------------------------|
-----9------9------9------9-----10----10----10----10--|
---0---0--0---0--0---0--0---0--0--0--0--0--0--0--0--0-|
-12-----12-----12-----12-----12----12----12----12-----|
------------------------------------------------------|

VERSE
------------------------|
------------------------|
------------------------|
-5-----3-2-0-----8-10---| x2
-5-----3-2-0-----8-10---|
-5-----3-2-0-----8-10---|

This part is all palm muted and fast picking:
-----------------------------------------------------------|
-----------------------------------------------------------|
-----------------------------------------------------------|
-----------------------------------------------------------|  x2
---------------------8-8-8-8-7-7-7-7-----------------------|
-8-8-8-8-8-8-8-8-(x3)----------------0-0-0-0-0-0-0-0-------|(x3)

CHORUS:
---------------------------------------------------|
---------------------------------------------------|
----12----12----12----12----10----10----10----10---|
---0--0--0--0--0--0--0--0--0--0--0--0--0--0--0--0--|
-13----13----13----13----12----12----12----12------|
---------------------------------------------------|






------------------------------------------------------|
------------------------------------------------------|
-----9------9------9------9-----10----10----10----10--|
---0---0--0---0--0---0--0---0--0--0--0--0--0--0--0--0-|
-12-----12-----12-----12-----12----12----12----12-----|
------------------------------------------------------|

Play this along with the chorus riff (fast picking):
-18-(x32)-17-(x32)-15-(x32)-17-(x32)-|
-20-------18-------17-------18-------|
-------------------------------------|
-------------------------------------| x2
-------------------------------------|
-------------------------------------|

SOLO
--------------------------------------------------|
--------------------------------------------------|
-15---14-15-17-15-14-15-14-15-14-10---14-15-14-10-|
-17---15-17-19-17-15-17-15-17-15-12---15-17-15-12-|
--------------------------------------------------|
--------------------------------------------------|

----------------------------------------|
----------------------------------------|
-12-14-12-9---12-14-12-9---7--9--10--12-|
-14-15-14-10--14-15-14-10--8--10-12--14-|  x2
----------------------------------------|
----------------------------------------|

BRIDGE (Welcome To The Soldier Side! The Lines You've Been Dying To Hear For Months!)

------------------------------------------|
------------------------------------------|
------------------------------------------|
-3--3--2--2--5--5--0--0--2--2--2--2--7--7-| x4
-3--3--2--2--5--5--0--0--2--2--2--2--7--7-|
-3--3--2--2--5--5--0--0--2--2--2--2--7--7-|

OUTRO (That great riff from Soldier Side Intro, except the fingering is up higher
on the fretboard, and its slightly faster)
-----------------------------------------------------|
-----------------------------------------------------|
-14---14-15-14-13---13------15-17-/19-17-15-14----14-|
-0-------------0------------17-19-/20-19-17-15----15-|
-0-------------0-------------------------------------|
-15-15---------14-14--14-17--------------------15----|

--------------------------------|
--------------------------------|
-13---13----------13---------10-|
-0----------14-------14-14-14---|
-0-------------------0----0-----|
-14-14---14----14---------------|

Thats the tab for the closing song of Mezmerize/Hypnotize!

Again any corrections or comments send them to coolandcrazy@hotmail.com!

Shotgun Joe signing out!
comments
print report bad tab
37 comments total. Showing first comments.
0 reply
Maitinin wrote on November 21 2005, 06:58 am

Bastard, you could at least have asked if you could use our tabs! I know you've wirtten that it's not your own tabs, but ask first please... because I'm in a good mood today and because I had actually led you use my tab if you'd asked, I rate fairly for now.

0 reply
shotgunjoe wrote on November 21 2005, 08:49 am

I dont care that you used my tabs, I wouldnt have minded if you asked though. Also for KRNR I also tabbed the studio version and not the live version, the live one even tabs the mistakes he made during the performance. I have also tabbed Tentative, and not just the intro. There are also some mistakes in my Holy Mountains tab, as I tabbed the live version and not the studio one, as I tabbed it back in May or something. Good work, not for your copying and pasting mastery, but for the quality of the tabs copied and pasted. Well done everyone!

0 reply
shoebox_of_lies wrote on November 21 2005, 02:42 pm

Other than the fact you just copied/pasted, some songs are off, and incomplete.

I want to post or [tab]
guest
You may want to rate the tab now too:
select rating
Please do not post tabs as comments. Select "correction" instead!