Oops, an error
Loading. Please wait.

Hypnotize Tab

ver3
ver3

Intro

Album

Whole song

More versions @911Tabs.com
47,397 views 63 this week
5 commentsread comments
1 2 3 4 5
excellent!
x 3
Autoscroll
+/-
esc
set tempo
stop
Contributor
Difficulty
intermediate
WARNING: You are trying to view
                                    content from Ultimate-Guitar.com
                                    in an unauthorized application,
                                    which is prohibited.

                                    Please use an official Ultimate
                                    Guitar Tabs application for iPhone,
                                    iPad or Android to access legitimate
                                    chords, guitar, bass, and drum tabs
                                    from Ultimate-Guitar.com database.

                                    Type "ultimate guitar tabs" in Apple
                                    App Store's or Android Market's
                                    search to find the application.
1.	Attack (Ver 3) – Tabbed By Maitinin
2.	Dreaming (Ver 2) – Tabbed By r18
3.	Kill Rock ‘N Roll (Ver 5) – Tabbed By Slyo
4.	Hypnotize (Ver 3) – Tabbed By Maitinin
5.	Stealing Society (Ver 1) – Tabbed by SLASHinROSES
6.	Tentative (Ver 1) – Tabbed by shotgunjoe
7.	U-Fig (Ver 2) – Tabbed by Maitinin
8.	Holy Mountains (Ver 3) – Tabbed by Maitinin
9.	Vicinity of Obscenity (Ver 1) – Tabbed by bobbynogo
10.	She’s Like Heroin (Ver 1) – Tabbed by bobbynogo
11.	Lonely Day (Ver 1) – Tabbed by a Greatly Generous unregistered guy
12.	Soldier Side (Ver 2) – Tabbed by Maitinin


1. ATTACK - Tabbed by Maitinin
Tunings: Db Ab Db Gb Bb Eb
         C# G# C# F# A# D#
Gtr I - Electric, Distorted (lead)
Gtr II - Electric, Distorted (backup)
Gtr III - Electric, Clean (lead)
Gtr IV - Electric, Clean (rhythm)
Gtr V - Electric, Clean (fills)

(don't worry, the song is easily arrangenged on two guitars with some pedals
 - the only thing you have to worry about is the sudden physical exhaustion!)

 Intro:
 Gtr I
 Q=160 bpm
 4/4
                                 PM--------|
     S  S  S  S  S  S  S  S  E   S S S S S S  3x  S  S  S  S  S  S  S  S  E   E   Q
||--------------------------------------------||------------------------------------------|
||o------------------------------------------o||----------------------------------d-------|
||--------------------------------------------||----------------------------------r-------|
||--------------------------------------------||----------------------------------u-------|
||o-13p12-13p12-13p12-13p12-12---------------o||-13p12-13p12-13p12-13p12-12-------m-------|
||--13p12-13p12-13p12-13p12-12---0-0-0-0-0-0--||-13p12-13p12-13p12-13p12-12---------------|

 Gtr I, II
                                 PM--------|
     S  S  S  S  S  S  S  S  E   S S S S S S  8x
||--------------------------------------------||
||o------------------------------------------o||
||--------------------------------------------||
||--------------------------------------------||
||o-13p12-13p12-13p12-13p12-12---------------o|| (it's okay if your fingers are tired by now...)
||--13p12-13p12-13p12-13p12-12---0-0-0-0-0-0--||
 |-Rhy Fig 1                    end Rhy Fig 1-|

 1st Verse:
 Gtr III
   Abm    Gbm            Gbm            Abm    Db
   Q.     E +H          +H         Q    Q      W                 W
|--8------6-(6)-------|-(6)--------6----8---|--5---------------|-----------------|
|-10------8-(8)-------|-(8)--------8---10---|--7---------------|-----------------|
|---------------------|---------------------|------------------|-----------------|
|---------------------|---------------------|------------------|-----------------|
|---------------------|---------------------|------------------|-----------------|
|---------------------|---------------------|------------------|-----------------|
|
|Gtr IV
|  E E E  E  E  E E E    E  E E E  E E  E E    E E E E E E E E   E E E E E E E E
|---------------------|---------------------|------------------|-----------------|
|---------------------|---------------------|------------------|-----------------|
|-17-----15-----------|-----------15---17---|-14---------------|-----------------|
|--0-0-0--0--0--0-0-0-|--0--0-0-0--0-0--0-0-|--0-0-0-0-0-0-0-0-|-0-0-0-0-0-0-0-0-|
|---------------------|---------------------|------------------|-----------------|
|---------------------|---------------------|------------------|-----------------|
...grieving each others lives...


   Abm    Gbm            Gbm       Gbm  Abm    Db                 Db       Gbm
   Q.     E +H          +H         Q    Q      W                  H        H
|--8------6-(6)-------|-(6)-------10----8---|--5---------------|--5--------6-------|
|-10------8-(8)-------|-(8)-------11---10---|--7---------------|--7--------8-------|
|---------------------|---------------------|------------------|-------------------|
|---------------------|---------------------|------------------|-------------------|
|---------------------|---------------------|------------------|-------------------|
|---------------------|---------------------|------------------|-------------------|
|
|  E E E  E  E  E E E    E  E E E  E E  E E    E E E E E E E E    E E E E  E E E E
|---------------------|---------------------|------------------|-------------------|
|---------------------|---------------------|------------------|-------------------|
|-17-----15-----------|-----------19---17---|-14---------------|-14-------15-------|
|--0-0-0--0--0--0-0-0-|--0--0-0-0--0-0--0-0-|--0-0-0-0-0-0-0-0-|--0-0-0-0--0-0-0-0-|
|---------------------|---------------------|------------------|-------------------|
|---------------------|---------------------|------------------|-------------------|

   Abm                Gbm      Bm         Gbm                Abm      Gbm
   W                  H        Q          W                  H        H
|--8---------------|-10-------11-------|--6---------------|--8-------10-------|
|-10---------------|-11-------13-------|--8---------------|-10-------11-------|
|------------------|-------------------|------------------|-------------------|
|------------------|-------------------|------------------|-------------------|
|------------------|-------------------|------------------|-------------------|
|------------------|-------------------|------------------|-------------------|
|
|  E E E E E E E E    E E E E  E E E E    E E E E E E E E    E E E E  E E E E
|------------------|-------------------|------------------|-------------------|
|------------------|-------------------|------------------|-------------------|
|-17---------------|-19-------20-------|-15---------------|-17-------19-------|
|--0-0-0-0-0-0-0-0-|--0-0-0-0--0-0-0-0-|--0-0-0-0-0-0-0-0-|--0-0-0-0--0-0-0-0-|
|------------------|-------------------|------------------|-------------------|
|------------------|-------------------|------------------|-------------------|

  Db                 Db
  E E H.             Q   Q   Q   Q
|-5-6-5------------|-5---5---5---5---|
|-7-7-7------------|-7---7---7---7---|
|------------------|-----------------|
|------------------|-----------------|
|------------------|-----------------|
|------------------|-----------------|
|
| E E  E E E E E E   E E E E E E E E
|------------------|-----------------|
|------------------|-----------------|
|-----14-----------|-----------------|
|-0-0--0-0-0-0-0-0-|-0-0-0-0-0-0-0-0-|
|------------------|-----------------|
|------------------|-----------------|


 Pre-Chorus:
 Gtr I, II
  PM--------------------------|     PM------------------------------|
  E   E   E   E   E   E   E   E     E   E   E   E    E    E    E    E
|---------------------------------|-------------------------------------|
|---------------------------------|-------------------------------------|
|---------------------------------|-------------------------------------|
|-5---5---4---5---7---7---5---7---|-8---8---7---8---10---10---10---10---|
|-5---5---4---5---7---7---5---7---|-8---8---7---8---10---10---10---10---|
|-5---5---4---5---7---7---5---7---|-8---8---7---8---10---10---10---10---|
...the calming sincerity of steel machines...


                                           1.
   PM-----------------------------------|    PM-------------------------------|
   S  S  S  S  S  S  S  S S S S S S S S S    S  S  S  S S S S S S S S S S S S S
|-----------------------------------------|-------------------------------------||
|-----------------------------------------|-------------------------------------||
|-----------------------------------------|-------------------------------------||
|-----------------------------------------|-------------------------------------||
|-----------------------------------------|-------------------------------------||
|-12-12-12-12-10-10-10-10-8-8-8-8-7-7-7-7-|-10-10-10-10-8-8-8-8-7-7-7-7-4-4-4-4-||


 2.
   PM---------------------------|
   S  S  S  S S S S S E    E    E    E
|----------------------------------------|
|----------------------------------------|
|----------------------------------------|
|----------------------------------------|
|----------------------------------------|
|-10-10-10-10-8-8-8-8-8---10---13---12---|


 Chorus:
 Gtr I, II (Gtr II actually plays the 0's as 12's, but it's a mess to write)
           PM------------------------------------------------------|
     +E    S S S S S S S S S S S S S S   S S S S S S S S E    E    E    E    3x
||-------------------------------------|-------------------------------------||
||o------------------------------------|------------------------------------o||
||-------------------------------------|-------------------------------------||
||-------------------------------------|-------------------------------------||
||o------------------------------------|------------------------------------o||
||--(12)---0-0-0-0-0-0-0-0-0-0-0-0-0-0-|-0-0-0-0-0-0-0-0-8---10---13---12----||
...we attack...


                                                            PM---|
  E    E    E    E    E    E    E    E      E    E    E E   E    E    Q
|----------------------------------------|------------------------------------|
|----------------------------------------|------------------------------------|
|-7---11---11---11---11---11---11---11---|-11---12---11s9---------------------|
|-x----x----x----x----x----x----x----x---|--x----x----x-----------------------|
|-5----9----9----9----9----9----9----9---|--9---10----9s7---------------------|
|-0--------------------------------------|------------------8---10---13\------|


 Pre-Chorus:
similar to previous


 Chorus:
almost similar to previous, but end on this instead:

  E    E    E    E    E    E    E    E      E    E    E    E    E   E   Q
|----------------------------------------|--------------------------------------|
|----------------------------------------|--------------------------------------|
|-7---11---11---11---11---11---11---11---|-11---12---11---11---11---------------|
|-x----x----x----x----x----x----x----x---|--x----x----x----x----x---------------|
|-5----9----9----9----9----9----9----9---|--9---10----9----9----9---------------|
|-0--------------------------------------|--------------------------------------|


 Interlude:
Rhy Fig 1 x8


 2nd Verse:
similar to 1st Verse


 3rd Verse:
similar to 1st and 2nd Verse, and add these fills:

 Gtr V
               Gbm                                         Db
    H.         E  E    E  E  E  E  E  E  E  E   H.         E  E    E  E  E  E  E  E  E  
 2x
||------------18-18-|-18-18-18-18-18-18-18-18-|-----------17-17-|-17-17-17-17-17-17-17-17--||
||o-----------20-20-|-20-20-20-20-20-20-20-20-|-----------19-19-|-19-19-19-19-19-19-19-19-o||
||------------19-19-|-19-19-19-19-19-19-19-19-|-----------19-19-|-19-19-19-19-19-19-19-19--||
||------------------|-------------------------|-----------------|--------------------------||
||o-----------------|-------------------------|-----------------|-------------------------o||
||------------------|-------------------------|-----------------|--------------------------||


   Db                                                  Gbm
   E  E  E  E  E  E  E  E    E  E  E  E  E  E  E  E    E  E  E  E  E  E  E  E
|-17-17-17-17-17-17-17-17-|-17-17-17-17-17-17-17-17-|-18-18-18-18-18-18-18-18-|
|-19-19-19-19-19-19-19-19-|-19-19-19-19-19-19-19-19-|-20-20-20-20-20-20-20-20-|
|-19-19-19-19-19-19-19-19-|-19-19-19-19-19-19-19-19-|-19-19-19-19-19-19-19-19-|
|-------------------------|-------------------------|-------------------------|
|-------------------------|-------------------------|-------------------------|
|-------------------------|-------------------------|-------------------------|


   Gbm                       Db
   E  E  E  E  E  E  E  E    E  E  E  E  E  E  E  E    E  E  E  E  E  E  E  E
|-18-18-18-18-18-18-18-18-|-17-17-17-17-17-17-17-17-|-17-17-17-17-17-17-17-17-|
|-20-20-20-20-20-20-20-20-|-19-19-19-19-19-19-19-19-|-19-19-19-19-19-19-19-19-|
|-19-19-19-19-19-19-19-19-|-19-19-19-19-19-19-19-19-|-19-19-19-19-19-19-19-19-|
|-------------------------|-------------------------|-------------------------|
|-------------------------|-------------------------|-------------------------|
|-------------------------|-------------------------|-------------------------|


 Pre-Chorus:
similar to previous


 Chorus:
again almost similar to previous, but end on this instead:

                                                            PM---|
  E    E    E    E    E    E    E    E      E    E    E E   E    E    E    E
|----------------------------------------|-------------------------------------|
|----------------------------------------|-------------------------------------|
|-7---11---11---11---11---11---11---11---|-11---12---11s9----------------------|
|-x----x----x----x----x----x----x----x---|--x----x----x------------------------|
|-5----9----9----9----9----9----9----9---|--9---10----9s7----------------------|
|-0--------------------------------------|------------------8---10---13---12---|


 Final Chorus:
         PM------|       PM---------------------------------|
     E   E   E   E   E   E   E   E     E   E   E   E   E    E    E    E    3x
||-----------------------------------|-------------------------------------||
||o----------------------------------|------------------------------------o||
||-----------------------------------|-------------------------------------||
||--12---------------0---------------|-------------------------------------||
||o-12---------------0---------------|------------------------------------o||
||--12---0---0---0---0---0---0---0---|-0---0---0---0---8---10---13---12----||
...attack all the homes and villages...


  E    E    E    E    E    E    E    E      E    E    E    E    E    E    E    E
|----------------------------------------|-----------------------------------------|
|----------------------------------------|-----------------------------------------|
|-7---11---11---11---11---11---11---11---|-11---12---11---11---11---11---11---11---|
|-x----x----x----x----x----x----x----x---|--x----x----x----x----x----x----x----x---|
|-5----9----9----9----9----9----9----9---|--9---10----9----9----9----9----9----9---|
|-0--------------------------------------|-----------------------------------------|


 Outro:
(half-time count)
  Q       Q       Q       Q         Q       Q       Q       S E.
|---------------------------------|---------------------------------|
|---------------------------------|---------------------------------|
|---------------------------------|---------------------------------|
|-4-------4-------4-------4-------|-4-------4-------4-------x-0-----|
|-4-------4-------4-------4-------|-4-------4-------4-------x-0-----|
|-4-------4-------4-------4-------|-4-------4-------4-------x-0-----|


                                   5/4
                                                            PM----------------|
  Q       S E.    Q       S E.      Q       S E.    Q       E    E    E    S  S
|---------------------------------|---------------------------------------------|
|---------------------------------|---------------------------------------------|
|---------------------------------|---------------------------------------------|
|-4-------x-5-----4-------x-0-----|-4-------x-5-----4---------------------------|
|-4-------x-5-----4-------x-0-----|-4-------x-5-----4---------------------------|
|-4-------x-5-----4-------x-0-----|-4-------x-5-----4-------8---10---13---12-12-|


 4/4
   E   Q.         H
|---------------------------------|
|---------------------------------|
|---------------------------------|
|-12------------------------------|
|-12------------------------------|
|-12------------------------------|


2. DREAMING - Tabbed by r18
Tabbed by:Ryan Kozicki
Email:rydeen@gmail.com

Tuning: C G C F A D
===============================================================================

| /  slide up
| \  slide down
| h  hammer-on
| p  pull-off
| ~  vibrato
| +  harmonic
| x  Mute note
===============================================================================
Intro

|-------------------------------------|
|-------------------------------------|
|-------------------------------------| X 11
|-14-0-0-0-13-0-0-0-12-0-0-0-11-0-0-0-|
|-------------------------------------|
|-------------------------------------|

|---------------------------------|
|---------------------------------|
|---------------------------------|
|---------------------------------|
|---------------------------------|
|-8-8-8-8-/12--8-8-8-8-/12--------|


Verse

|--------------------------------------|
|--------------------------------------|
|--------------------------------------|
|-14-0-0-0-13-0-0-0-12-0-0-0-11-0-0-0--| X 7
|-14-0-0-0-13-0-0-0-12-0-0-0-11-0-0-0--|
|-14-0-0-0-13-0-0-0-12-0-0-0-11-0-0-0--|

|---------------------------------|
|---------------------------------|
|---------------------------------|
|---------------------------------|
|---------------------------------|
|-8-8-8-8-/12--8-8-8-8-/12--------|

|---------------------|
|---------------------|
|---------------------|
|-14-0-13-0-12-0-11-0-| X 7 Palmed
|-14-0-13-0-12-0-11-0-|
|-14-0-13-0-12-0-11-0-|

|---------------------------------|
|---------------------------------|
|---------------------------------|
|---------------------------------|
|---------------------------------|
|-8-8-8-8-/12---/12-/12-/12-------|

Chorus

|---------------------------------|
|---------------------------------|
|-----------------8----8----------|
|-0----0--5----5--8----8--4--5-7--|
|-0----0--5----5--6----6--4--5-7--|
|-0----0--5----5----------4--5-7--|

|-----------------------------------|
|-----------------------------------|
|-----------------8----8------------|
|-0----0--5----5--8----8--11-12-14--|
|-0----0--5----5--6----6--11-12-14--|
|-0----0--5----5----------9--10-12--|

Verse

|--------------------------------------|
|--------------------------------------|
|--------------------------------------|
|-14-0-0-0-13-0-0-0-12-0-0-0-11-0-0-0--| X 7
|-14-0-0-0-13-0-0-0-12-0-0-0-11-0-0-0--|
|-14-0-0-0-13-0-0-0-12-0-0-0-11-0-0-0--|

|---------------------------------|
|---------------------------------|
|---------------------------------|
|---------------------------------|
|---------------------------------|
|-8-8-8-8-/12--8-8-8-8-/12--------|

|---------------------|
|---------------------|
|---------------------|
|-14-0-13-0-12-0-11-0-| X 7 Palmed
|-14-0-13-0-12-0-11-0-|
|-14-0-13-0-12-0-11-0-|

|---------------------------------|
|---------------------------------|
|---------------------------------|
|---------------------------------|
|---------------------------------|
|-8-8-8-8-/12---/12-/12-/12-------|

Chorus

|---------------------------------|
|---------------------------------|
|-----------------8----8----------|
|-0----0--5----5--8----8--4--5-7--|
|-0----0--5----5--6----6--4--5-7--|
|-0----0--5----5----------4--5-7--|

|-----------------------------------|
|-----------------------------------|
|-----------------8----8------------|
|-0----0--5----5--8----8--11-12-14--|
|-0----0--5----5--6----6--11-12-14--|
|-0----0--5----5----------9--10-12--|

Bridge

|-----------------------------------------|
|-----------------------------------------|
|-----------------------------------------|
|-5--7-7-7-7-7-7-5---1--3-3-3-3-3-3-1-----|
|-5--5-5-5-5-5-5-5---1--1-1-1-1-1-1-1-----|
|-5--5-5-5-5-5-5-5---1--1-1-1-1-1-1-1-----|

-----------------------------------------|
-----------------------------------------|
-----------------------------------------|
-3--5-5-5-5-5-5-3---7--7--7-7-7--7-7-7-7-|
-3--3-3-3-3-3-3-3------------------------|
-3--3-3-3-3-3-3-3---5--5--5-5-5--5-5-5-5-|

Solo

|--------------------------------------------------------------------------|
|----------13-15-16-18----16-16-16p-15-13----------------------------------|
|-12-14-15-14-15-17-19----17-17-17p-15-14-15-14----19-19-19-19-19-19-19-19-|X2
|-----------------------------------------17-15----------------------------|
|--------------------------------------------------17-17-17-17-17-17-17-17-|
|--------------------------------------------------------------------------|

|-17-17-17-17-17-17-17-17--15-15-15-15-15-15-15-15-|
|-15-15-15-15-15-15-15-15--15-15-15-15-15-15-15-15-|
|--------------------------------------------------|X 3
|--------------------------------------------------|
|--------------------------------------------------|
|--------------------------------------------------|

-15-15-15-15-15-15-15-15--14-14-14-14-14-14-14-14-|
-15-15-15-15-15-15-15-15--15-15-15-15-15-15-15-15-|
--------------------------------------------------|
--------------------------------------------------|
--------------------------------------------------|
--------------------------------------------------|

|-17-17-17-17-17-17-17-17--15-15-15-15-15-15-15-15-|
|-15-15-15-15-15-15-15-15--15-15-15-15-15-15-15-15-|
|--------------------------------------------------|X 3
|--------------------------------------------------|
|--------------------------------------------------|
|--------------------------------------------------|


-15-15-15-15-15-15-15-15--14-|
-15-15-15-15-15-15-15-15--15-|
-----------------------------|
-----------------------------|
-----------------------------|
-----------------------------|

Verse

|--------------------------------------|
|--------------------------------------|
|--------------------------------------|
|-14-0-0-0-13-0-0-0-12-0-0-0-11-0-0-0--| X 7
|-14-0-0-0-13-0-0-0-12-0-0-0-11-0-0-0--|
|-14-0-0-0-13-0-0-0-12-0-0-0-11-0-0-0--|

|---------------------------------|
|---------------------------------|
|---------------------------------|
|---------------------------------|
|---------------------------------|
|-8-8-8-8-/12--8-8-8-8-/12--------|

|---------------------|
|---------------------|
|---------------------|
|-14-0-13-0-12-0-11-0-| X 7 Palmed
|-14-0-13-0-12-0-11-0-|
|-14-0-13-0-12-0-11-0-|

|---------------------------------|
|---------------------------------|
|---------------------------------|
|---------------------------------|
|---------------------------------|
|-8-8-8-8-/12---/12-/12-/12-------|

Chorus

|---------------------------------|
|---------------------------------|
|-----------------8----8----------|
|-0----0--5----5--8----8--4--5-7--|
|-0----0--5----5--6----6--4--5-7--|
|-0----0--5----5----------4--5-7--|

|-----------------------------------|
|-----------------------------------|
|-----------------8----8------------|
|-0----0--5----5--8----8--11-12-14--|
|-0----0--5----5--6----6--11-12-14--|
|-0----0--5----5----------9--10-12--|


Outro Verse (play it X 3)

|------------------------------------------------------------------|
|------------------------------------------------------------------|
|------------------------------------------------------------------|
|------------------------------------------------------------------|
|------------------------------------------------------------------|
|-0-0-0-0-0-0-0-0-0-0-0-0-0-0-0-0--5-5-5-5-5-5-5-5-5-5-5-5-5-5-5-5-|


|-----------------------------------------------------------|
|-----------------------------------------------------------|
|-----------------------------------------------------------|
|----------------------------------11-11-11-11-11-11--12-12-|
|-6-6-6-6-6-6-6-6-6-6-6-6-6-6-6-6---9--9--9--9--9--9--10-10-|
|-----------------------------------------------------------|

-------------------------|
-------------------------|
-------------------------|
-------------------------|
-14-14-14-14-14-14-14-14-|
-12-12-12-12-12-12-12-12-|

Outro

|---------------------|
|---------------------|
|---------------------|
|-14-0-13-0-12-0-11-0-| X 7 Pamlmed
|-14-0-13-0-12-0-11-0-|
|-14-0-13-0-12-0-11-0-|

|---------------------------------|
|---------------------------------|
|---------------------------------|
|---------------------------0-----|
|---------------------------0-----|
|-8-8-8-8-/12---/12-/12-/12-0-----|

The end

3. KILL ROCK 'N ROLL - Tabbed by Slyo
Tabbed by: slyo
Email: sly at davidhurst dot net

I realise this is the millionth tab of this song, but hey it's a little more correct 
most 8)

Gtr I   (C# G# C# F# A# D#) - Clean
Gtr II  (C# G# C# F# A# D#) - Clean
Gtr III (C# G# C# F# A# D#) - Distorted

[Intro]
    Gtr I
D#||-----------------------------------------|----------------------------------------|
A#||-----------------------------------------|----------------------------------------|
F#||-----------------------------------------|----------------------------------------|
C#||---10---10---10---10---10---10---10---10-|---10---10---10---10---10---10---10--10-|
G#||-8----8----8----8----8----8----8----8----|-0----0----0----0----0----0----0---0----|
C#||-----------------------------------------|----------------------------------------|

[Intro]
    Gtr I
D#|-----------------------------------|---------------------------------||
A#|-----------------------------------|---------------------------------||
F#|-----------------------------------|---------------------------------||
C#|-10\-9---9---9---9---9---9---9---9-|---9---9---9---9---9---9---9---9-||
G#|---7---7---7---7---7---7---7---7---|-8---8---8---8---8---8---8---8---||
C#|-----------------------------------|---------------------------------||

[Intro]
    Gtr I
D#||-13-13-13-13-13-13-13-13-13-13-13-13-13-13-13-13-|-12-12-12-12-12-12-12-12-12-12-12-12-12-12-13-13-|
A#||-15-15-15-15-15-15-15-15-15-15-15-15-15-15-15-15-|-13-13-13-13-13-13-13-13-13-13-13-13-13-13-------|
F#||-------------------------------------------------|-------------------------------------------------|
C#||-------------------------------------------------|-------------------------------------------------|
G#||-------------------------------------------------|-------------------------------------------------|
C#||-------------------------------------------------|-------------------------------------------------|
  |
  | Gtr II
D#||-------------------------------------------------|-------------------------------------------------|
A#||-------------------------------------------------|-------------------------------------------------|
F#||-------17-16-17-16-17-16-17-16-17-16-17-16-17-16-|-17-16-17-16-17-16-17-16-17-16-17-16-17-16-17-16-|
C#||-------------------------------------------------|-------------------------------------------------|
G#||-------------------------------------------------|-------------------------------------------------|
C#||-------------------------------------------------|-------------------------------------------------|

[Intro]
    Gtr I
D#|-15-15-15-15-------------------------------------|-------------------------------------------------||
A#|-------------15-15-15-15-12-12-12-12-15-15-15-15-|-13-13-13-13-13-13-13-13-13-13-13-13-13-13-13-13-||
F#|-------------------------------------------------|-------------------------------------------------||
C#|-------------------------------------------------|-------------------------------------------------||
G#|-------------------------------------------------|-------------------------------------------------||
C#|-------------------------------------------------|-------------------------------------------------||
  |
  | Gtr II
D#|-------------------------------------------------|-------------------------------------------------||
A#|-------------------------------------------------|-------------------------------------------------||
F#|-14-16-14-16-14-16-14-16-14-16-14-16-14-16-14-16-|-17-16-17-16-17-16-17-16-17-16-17-16-17-16-17-16-||
C#|-------------------------------------------------|-------------------------------------------------||
G#|-------------------------------------------------|-------------------------------------------------||
C#|-------------------------------------------------|-------------------------------------------------||

[Verse]
    Gtr III
D#||----------------------------|---------------------------------|
A#||----------------------------|---------------------------------|
F#||--------5-------------4-----|-2-------------------------------|
C#||-3------5-5-5--2------4-4-4-|-2-2-2-2-2-2-2-2-2-2-2-2-2-2-2-2-|
G#||-3-3-3--3-3-3--2-2-2--2-2-2-|-0-0-0-0-0-0-0-0-0-0-0-0-0-0-0-0-|
C#||-3-3-3---------2-2-2--------|---------------------------------|
pm     |__    |__    |__    |__     |____________________________

[Verse]
    Gtr III
D#|----------------------------|---------------------------------||
A#|----------------------------|---------------------------------||
F#|--------5-------------4-----|-2-------------------------------||
C#|-3------5-5-5--2------4-4-4-|-2-2-2-2-2-2-2-2-2-2-2-2-2-2-2-2-||
G#|-3-3-3--3-3-3--2-2-2--2-2-2-|-0-0-0-0-0-0-0-0-0-0-0-0-0-0-0-0-||
C#|-3-3-3---------2-2-2--------|---------------------------------||
pm    |__    |__    |__    |__     |_____________/

[Chorus]
    Gtr III
D#||-------------------------------------------------|-------------------------------------------------|
A#||-------------------------------------------------|-------------------------------------------------|
F#||-------------------------------------------------|-------------------------------------------------|
C#||-10-10-10-10-10-10-10-10-10-10-10-10-10-10-10-10-|-10-10-10-10-10-10-10-10-10-10-10-10-10-10-10-10-|
G#||--8--8--8--8--8--8--8--8--8--8--8--8--8--8--8--8-|--0--0--0--0--0--0--0--0--0--0--0--0--0--0--0--0-|
C#||-------------------------------------------------|-------------------------------------------------|

[Chorus]
    Gtr III
D#||---------------------------------|---------------------------------||
A#||---------------------------------|---------------------------------||
F#||---------------------------------|---------------------------------||
C#||-9-9-9-9-9-9-9-9-9-9-9-9-9-9-9-9-|-9-9-9-9-9-9-9-9-9-9-9-9-9-9-9-9-||
G#||-7-7-7-7-7-7-7-7-7-7-7-7-7-7-7-7-|-8-8-8-8-8-8-8-8-8-8-8-8-8-8-8-8-||
C#||---------------------------------|---------------------------------||

[Verse]
    Gtr III
D#||----------------------------|---------------------------------|
A#||----------------------------|---------------------------------|
F#||--------5-------------4-----|-2-------------------------------|
C#||-3------5-5-5--2------4-4-4-|-2-2-2-2-2-2-2-2-2-2-2-2-2-2-2-2-|
G#||-3-3-3--3-3-3--2-2-2--2-2-2-|-0-0-0-0-0-0-0-0-0-0-0-0-0-0-0-0-|
C#||-3-3-3---------2-2-2--------|---------------------------------|
pm     |__    |__    |__    |__     |____________________________

[Verse]
    Gtr III
D#|----------------------------|---------------------------------||
A#|----------------------------|---------------------------------||
F#|--------5-------------4-----|-2-------------------------------||
C#|-3------5-5-5--2------4-4-4-|-2-2-2-2-2-2-2-2-2-2-2-2-2-2-2-2-||
G#|-3-3-3--3-3-3--2-2-2--2-2-2-|-0-0-0-0-0-0-0-0-0-0-0-0-0-0-0-0-||
C#|-3-3-3---------2-2-2--------|---------------------------------||
pm    |__    |__    |__    |__     |_____________/

[Chorus]
    Gtr III
D#||-------------------------------------------------|-------------------------------------------------|
A#||-------------------------------------------------|-------------------------------------------------|
F#||-------------------------------------------------|-------------------------------------------------|
C#||-10-10-10-10-10-10-10-10-10-10-10-10-10-10-10-10-|-10-10-10-10-10-10-10-10-10-10-10-10-10-10-10-10-|
G#||--8--8--8--8--8--8--8--8--8--8--8--8--8--8--8--8-|--0--0--0--0--0--0--0--0--0--0--0--0--0--0--0--0-|
C#||-------------------------------------------------|-------------------------------------------------|

[Chorus]
    Gtr III
D#||---------------------------------|---------------------------------||
A#||---------------------------------|---------------------------------||
F#||---------------------------------|---------------------------------||
C#||-9-9-9-9-9-9-9-9-9-9-9-9-9-9-9-9-|-9-9-9-9-9-9-9-9-9-9-9-9-9-9-9-9-||
G#||-7-7-7-7-7-7-7-7-7-7-7-7-7-7-7-7-|-8-8-8-8-8-8-8-8-8-8-8-8-8-8-8-8-||
C#||---------------------------------|---------------------------------||

[Pre-Bridge]
    Gtr III
D#||-------------|-------------|--------------|--------------|
A#||-------------|-------------|--------------|--------------|
F#||-------------|-------------|--------------|--------------|
C#||-3--------/8-|-7-----------|-\2-----------|-3------------|
G#||-3--------/8-|-7-----------|-\2-----------|-3------------|
C#||-3--------/8-|-7-----------|-\2-----------|-3------------|
lr   |________     |____________ |____________ |_____________

[Pre-Bridge]
    Gtr III
D#||-------------|-------------|--------------|--------------||
A#||-------------|-------------|--------------|--------------||
F#||-------------|-------------|--------------|--------------||
C#||-3--------/8-|-7-----------|-\2---------2-|-3------------||
G#||-3--------/8-|-7-----------|-\2---------2-|-3------------||
C#||-3--------/8-|-7-----------|-\2---------2-|-3------------||
lr   |________     |____________ |__________   |_____________

[Bridge]
    Gtr I
D#||-----------------------------------|----------------------------------|
A#||o----------------------------------|---------------------------------o|
F#||-----------------------------------|----------------------------------|
C#||-----9---10-7---------9---10-7-----|-----7---8-5---------7---8-5------|
G#||o--8---8------8-7---8---8------8-7-|---6---6-----6-5---6---6-----6-5-o|
C#||-7----------------7----------------|-5---------------5----------------|
pm  |_____________________________________________________________________

[Bridge]
   Gtr III                              1.                                 2.
D#|-----------------------------------|----------------------------------||----------------------------------||
A#|o----------------------------------|---------------------------------o||----------------------------------||
F#|-----------------------------------|----------------------------------||----------------------------------||
C#|-----9---10-7---------9---10-7-----|-----7---8-5---------7---8-5------||-----7---8-5-----5----------------||
G#|o--8---8------8-7---8---8------8-7-|---6---6-----6-5---6---6-----6-5-o||---6---6-----6-5-5----------------||
C#|-7----------------7----------------|-5---------------5----------------||-5---------------5----------------||
pm  |______________________________________________________________________________________

[Chorus]
    Gtr III
D#||-------------------------------------------------|-------------------------------------------------|
A#||-------------------------------------------------|-------------------------------------------------|
F#||-------------------------------------------------|-------------------------------------------------|
C#||-10-10-10-10-10-10-10-10-10-10-10-10-10-10-10-10-|-10-10-10-10-10-10-10-10-10-10-10-10-10-10-10-10-|
G#||--8--8--8--8--8--8--8--8--8--8--8--8--8--8--8--8-|--0--0--0--0--0--0--0--0--0--0--0--0--0--0--0--0-|
C#||-------------------------------------------------|-------------------------------------------------|

[Chorus]
    Gtr III
D#||---------------------------------|---------------------------------||
A#||---------------------------------|---------------------------------||
F#||---------------------------------|---------------------------------||
C#||-9-9-9-9-9-9-9-9-9-9-9-9-9-9-9-9-|-9-9-9-9-9-9-9-9-9-9-9-9-9-9-9-9-||
G#||-7-7-7-7-7-7-7-7-7-7-7-7-7-7-7-7-|-8-8-8-8-8-8-8-8-8-8-8-8-8-8-8-8-||
C#||---------------------------------|---------------------------------||

[Bridge II]
    Gtr III
D#||----------------|---------------|----------------------|--------------------|
A#||----------------|---------------|----------------------|--------------------|
F#||----------------|---------------|----------------------|--------------------|
C#||-3---3---3---/8-|-7---7---7---7-|-\2---2---2---2-2-2-2-|-3---3---3---3--3-3-|
G#||-3---3---3---/8-|-7---7---7---7-|-\2---2---2---2-2-2-2-|-3---3---3---3--3-3-|
C#||-3---3---3---/8-|-7---7---7---7-|-\2---2---2---2-2-2-2-|-3---3---3---3--3-3-|


[Bridge II]
   Gtr III
D#|---------------------------------|---------------------------------|
A#|---------------------------------|---------------------------------|
F#|---------------------------------|---------------------------------|
C#|-3-3-3-3-3-3-3-3-3-3-3-3-8-8-8-8-|-7-7-7-7-7-7-7-7-7-7-7-7-7-7-7-7-|
G#|-3-3-3-3-3-3-3-3-3-3-3-3-8-8-8-8-|-7-7-7-7-7-7-7-7-7-7-7-7-7-7-7-7-|
C#|-3-3-3-3-3-3-3-3-3-3-3-3-8-8-8-8-|-7-7-7-7-7-7-7-7-7-7-7-7-7-7-7-7-|
pm |_________________________________________________________________

[Bridge II]
   Gtr III
D#|---------------------------------|---------------------------------||
A#|---------------------------------|---------------------------------||
F#|---------------------------------|---------------------------------||
C#|-2-2-2-2-2-2-2-2-2-2-2-2-2-2-2-2-|-3-3-3-3-3-3-3-3-3-3-3-3-3-3-3-3-||
G#|-2-2-2-2-2-2-2-2-2-2-2-2-2-2-2-2-|-3-3-3-3-3-3-3-3-3-3-3-3-3-3-3-3-||
C#|-2-2-2-2-2-2-2-2-2-2-2-2-2-2-2-2-|-3-3-3-3-3-3-3-3-3-3-3-3-3-3-3-3-||
pm |___________________________________________________/

[Extro]
    Gtr III
D#||------------------------------||
A#||o----------------------------o||
F#||---------5-------------4------||
C#||--3------5-5-5--2------4-4-4--||
G#||o-3-3-3--3-3-3--2-2-2--2-2-2-o||
C#||--3-3-3---------2-2-2---------||
pm      |__    |__    |__    |__

[Extro]
    Gtr III
D#||------------------------------------------||
A#||------------------------------------------||
F#||------------------------------------------||
C#||----------------------------------------2-||
G#||------3--------2----------3-----------2-0-||
C#||-3--------2----------3----------2---------||
     tp  tp   tp   tp    tp   tp    tp    tp
pm  |______________________________________

lr = let ring
/  = slide up
\  = slide down
pm = palm mute
tp = tremolo picking
-------------------------------------------------------------------------------

4. HYPNOTIZE - Tabbed by Maitinin
Tuning: Db Ab Db Gb Bb Eb
        C# G# C# F# A# D#
Gtr I - Electric, Clean
Gtr II - Electric, Distorted
Gtr III - Electric, Clean
Gtr IV - Electric, Clean w/ octaver producing a note one octave below

 Intro
  4/4
  Q=75 bpm
  Gtr I
    N.C.
    S S S S S S S S S S S S S S S S   S S S S S S S S S S S S S S S S
||----------------------------------|----------------------------------||
||o-1---1---3---3---3---3---3---3---|-4---4---3---3---1---1---0---0---o||
||----0---0---0---0---0---0---0---0-|---0---0---0---0---0---0---0---0--||
||----------------------------------|----------------------------------||
||o---------------------------------|---------------------------------o||
||----------------------------------|----------------------------------||


    S S S S S S S S  S S  S S S S S S    S S  S S  S S  S S  S S  S S  S S  S S
||------------------------------------|------------------------------------------||
||o-8---8---7---7---10---10---8---8---|-12---12---10---10---13---13---12---12---o||
||----0---0---0---0----0----0---0---0-|----0----0----0----0----0----0----0----0--||
||------------------------------------|------------------------------------------||
||o-----------------------------------|-----------------------------------------o||
||------------------------------------|------------------------------------------||


   N.C.
   S S  S S  S S  S S  S S  S S  S S  S S    S S  S S  S S  S S  S S  S S S S S S
|-----------------------------------------|---------------------------------------|
|-15---15---13---13---12---12---10---10---|-13---13---12---12---10---10---8---8---|
|----0----0----0----0----0----0----0----0-|----0----0----0----0----0----0---0---0-|
|-----------------------------------------|---------------------------------------|
|-----------------------------------------|---------------------------------------|
|-----------------------------------------|---------------------------------------|


   S S  S S  S S  S S S S S S S S S S
|-------------------------------------|
|-11---11---10---10---8---8---7---7---|
|----0----0----0----0---0---0---0---0-|
|-------------------------------------|
|-------------------------------------|
|-------------------------------------|


 1st Verse
  Gtr II
    Gb5                     D5(b5)    Gb5                     D5(b5)
    Q       E.    S E   E   S S E     Q       E.    S E   E   S S E    4x
||----------------------------------|----------------------------------||
||o---------------------------------|---------------------------------o||
||--------------------------8-8-8---|-------------------------8-8-8----||
||--5-------5-----5-5---5---7-8-8---|-5-------5-----5-5---5---7-8-8----||
||o-5-------5-----5-5---5---6-6-6---|-5-------5-----5-5---5---6-6-6---o||
||--5-------5-----5-5---5-----------|-5-------5-----5-5---5------------||
...why don't you ask the kids at Tiananmen Square?...


 Gtr I
   N.C.
   S S  S S  S S  S S  S S  S S  S S  S S    S S  S S  S S  S S  S S  S S S S S S
|-----------------------------------------|---------------------------------------|
|-15---15---13---13---12---12---10---10---|-13---13---12---12---10---10---8---8---|
|----0----0----0----0----0----0----0----0-|----0----0----0----0----0----0---0---0-|
|-----------------------------------------|---------------------------------------|
|-----------------------------------------|---------------------------------------|
|-----------------------------------------|---------------------------------------|
...I'm just sitting in my car...


   S S  S S  S S  S S S S S S S S S S
|-------------------------------------|
|-11---11---10---10---8---8---7---7---|
|----0----0----0----0---0---0---0---0-|
|-------------------------------------|
|-------------------------------------|
|-------------------------------------|


 2nd Verse
similar to 1st Verse, and add this part afterwards:

 Gtr II
  Q       E.    S E   E   S S E     Q       E.    S E   E   S S E
|---------------------------------|---------------------------------|
|---------------------------------|---------------------------------|
|-------------------------8-8-8---|-------------------------8-8-8---|
|-5-------5-----5-5---5---7-8-8---|-5-------5-----5-5---5---7-8-8---|
|-5-------5-----5-5---5---6-6-6---|-5-------5-----5-5---5---6-6-6---|
|-5-------5-----5-5---5-----------|-5-------5-----5-5---5-----------|


 Chorus
 Gtr II
  Gb5             D(b5)             D(b5)            E5
  E   E   E   E   E   E   E   E     E   E   E   E    S  S  S  S  E    E
|---------------------------------|---------------------------------------|
|---------------------------------|---------------------------------------|
|-----------------8---8---8---8---|-8---8---8---8---10-10-10-10-10---10---|
|-5---5---5---5---7---7---7---7---|-7---7---7---7---10-10-10-10-10---10---|
|-5---5---5---5---6---6---6---6---|-6---6---6---6----8--8--8--8--8----8---|
|-5---5---5---5-------------------|---------------------------------------|
...I'm just sitting in my car...


  A5              Db5
  Q       Q       Q       Q
|---------------------------------|
|---------------------------------|
|-----------------7-------7-------|
|-8-------8-------7-------7-------|
|-8-------8-------5-------5-------|
|-8-------8-------0-------0-------|


 Bridge
  Gtr II
    Gb5   Db5   E5  Gb5   Db5   E5  Gb5   Db5   E5  Gb5     Db5  E5
    PM-----------------------------------------------------------|
    S.    S.    S   S.    S.    S   S.    S.    S   S.      S.   S
||--------------------------------------------------------------------||
||o------------------------------------------------------------------o||
||--------------------------------------------------------------------||
||--------------------------------------------------------------------||
||o-5-----0-----3---5-----0-----3---5-----0-----3---5-------0----3---o||
||--5-----0-----3---5-----0-----3---5-----0-----3---5-------0----3----||
| (it's easy to indulge in playing triads here so be tight)
|
|Gtr III
|                                                        Bb
|   H.                                              S    T  T  E
||------------------------------------------------------19-19-19------||
||o-----------------------------------------------------20-20-20-----o||
||------------------------------------------------------19-19-19------||
||--------------------------------------------------------------------||
||o------------------------------------------------------------------o||
||--------------------------------------------------------------------||


 Interlude (each guitar is written separately for clarity)
  Gtr I
    S S S S S S S S S S S S S S S S   S S S S S S S S S S S S S S S S
||----------------------------------|----------------------------------||
||o-1---1---3---3---3---3---3---3---|-4---4---3---3---1---1---0---0---o||
||----0---0---0---0---0---0---0---0-|---0---0---0---0---0---0---0---0--||
||----------------------------------|----------------------------------||
||o---------------------------------|---------------------------------o||
||----------------------------------|----------------------------------||


    S S S S S S S S  S S  S S S S S S    S S  S S  S S  S S  S S  S S  S S  S S
||------------------------------------|------------------------------------------||
||o-8---8---7---7---10---10---8---8---|-12---12---10---10---13---13---12---12---o||
||----0---0---0---0----0----0---0---0-|----0----0----0----0----0----0----0----0--||
||------------------------------------|------------------------------------------||
||o-----------------------------------|-----------------------------------------o||
||------------------------------------|------------------------------------------||

 Gtr II
    PM----------------------------------------------------------|
    S.    S.    S   S.    S.    S   S.    S.    S   S.    S.    S    8x
||-------------------------------------------------------------------||
||o-----------------------------------------------------------------o||
||-------------------------------------------------------------------||
||-------------------------------------------------------------------||
||o-5-----0-----3---5-----0-----3---5-----0-----3---5-----0-----3---o||
||--5-----0-----3---5-----0-----3---5-----0-----3---5-----0-----3----||

 Gtr III
    H.                                              S    T  T  E        4x
||------------------------------------------------------19-19-19--------||
||o-----------------------------------------------------20-20-20-------o||
||------------------------------------------------------19-19-19--------||
||----------------------------------------------------------------------||
||o--------------------------------------------------------------------o||
||----------------------------------------------------------------------||


    Q            S    T  T  E       Q               S    T  T  E        4x
||-------------------19-19-19---------------------------19-19-19--------||
||o------------------20-20-20---------------------------20-20-20-------o||
||-------------------19-19-19---------------------------19-19-19--------||
||----------------------------------------------------------------------||
||o--------------------------------------------------------------------o||
||----------------------------------------------------------------------||

 Gtr IV
     Q..            S  Q..            T  T
||-----------------------------------------|
||o-------------------12-------------12-13-|
||--12-------------14----------------------|
||-----------------------------------------|
||o----------------------------------------|
||-----------------------------------------|


               |--3--|                      |--3--|
   S  S  S  S  T  T  T  S  S  S  S  S  S  S T  T  T   S  S  S
|--------------------------------------------------------------||
|-15-13-12-13-12h13p12----12----------12-13-12h13p12----12----o||
|----------------------14----14-12-14----------------14----14--||
|--------------------------------------------------------------||
|-------------------------------------------------------------o||
|--------------------------------------------------------------||

     E    E    E    E    E    E    E    E      E    E    E    E    E    E    E    E
||------------------------------------------|------------------------------------------||
||o-----------------------------------------|-12---12------------13---13----12---12---o||
||--12---12---11---11---14---14---12---12---|----------14---14-------------------------||
||------------------------------------------|------------------------------------------||
||o-----------------------------------------|-----------------------------------------o||
||------------------------------------------|------------------------------------------||


 Chorus
 Gtr II
  E   E   E   E   E   E   E   E     E   E   E   E    E    E    E    E
|---------------------------------|-------------------------------------|
|---------------------------------|-------------------------------------|
|-----------------8---8---8---8---|-8---8---8---8---10---10---10---10---|
|-5---5---5---5---7---7---7---7---|-7---7---7---7---10---10---10---10---|
|-5---5---5---5---6---6---6---6---|-6---6---6---6----8----8----8----8---|
|-5---5---5---5-------------------|-------------------------------------|


  Q       Q       Q       Q
|---------------------------------|
|---------------------------------|
|-----------------7-------7-------|
|-8-------8-------7-------7-------|
|-8-------8-------5-------5-------|
|-8-------8-------0-------0-------|


    PM----------------------------------------------------------|
    S.    S.    S   S.    S.    S   S.    S.    S   S.    S.    S
||-------------------------------------------------------------------||
||o-----------------------------------------------------------------o||
||-------------------------------------------------------------------||
||-------------------------------------------------------------------||
||o-5-----0-----3---5-----0-----3---5-----0-----3---5-----0-----3---o||
||--5-----0-----3---5-----0-----3---5-----0-----3---5-----0-----3----||


  S S S S Q       S S S S Q         S S S S Q        S  S  S  S Q
|---------------------------------|-------------------------------------|
|---------------------------------|-------------------------------------|
|-----------------8-8-8-8---------|-8-8-8-8---------10-10-10-10---------|
|-5-5-5-5---------7-7-7-7---------|-7-7-7-7---------10-10-10-10---------|
|-5-5-5-5---------6-6-6-6---------|-6-6-6-6----------8--8--8--8---------|
|-5-5-5-5-------------------------|-------------------------------------|


  H               H                 +W
|---------------------------------|-----------------------------------|
|---------------------------------|-----------------------------------|
|-----------------7---------------|-(7)-------------------------------|
|-8---------------7---------------|-(7)-------------------------------|
|-8---------------5---------------|-(5)-------------------------------|
|-8---------------0---------------|-(0)-------------------------------|


 Outro
 Q=50 bpm (just slow down, anyways)
 Gtr I
  S S S S S S S S S S S S S S S S   S S S S S S S S Q       S S E   W
|---------------------------------|-------------------------------|---------|
|-1---1---3---3---3---3---3---3---|-4---4---3---3---1-------1h3p1-|-0-------|
|---0---0---0---0---0---0---0---0-|---0---0---0---0---------------|-0-------|
|---------------------------------|-------------------------------|---------|
|---------------------------------|-------------------------------|---------|
|---------------------------------|-------------------------------|---------|


5. STEALING SOCIETY - Tabbed by SLASHinROSES
Tuning: Dropped Db

Pretty Fast Song. I Like The Surfer Sounding Bridge

A
|-----------------------------------------------------------------------|
|-----------------------------------------------------------------------|
|-----------------------------------------------------------------------|
|-6777677767776---6777677767776---67776---67776---6777677767776---------|
|-6777677767776---6777677767776---67776---67776---6777677767776---------|
|-6777677767776---6777677767776---67776---67776---6777677767776---------|
               yea           allright  yea   allright

B
|-----------------------------------------------------------------------|
|-----------------------------------------------------------------------|
|-----------------------------------------------------------------------|
|-66766767976467--66766767976467--66766767976467--667667679-7-6-4-6-7---|
|-66766767976467--66766767976467--66766767976467--667667679-7-6-4-6-7---|
|-66766767976467--67766767976467--66766767976467--667667679-7-6-4-6-7---|

C
|-----------------------------------------------------------------------|
|-----------------------------------------------------------------------|
|-----------------------------------------------------------------------|
|-----------------------------------------------------------------------|
|-6666666766666676666666676666666667-55555555565555555565555555565555556|
|-----------------------------------------------------------------------|

D
|-----------------------------------------------------------------------|
|-----------------------------------------------------------------------|
|-----------------------------------------------------------------------|
|-9-9--9-6-6--6-11-11--11-6-6--6-8---------88889---------9999-----------|
|-9-9--9-6-6--6--9--9---9-6-6--6-6666666666666677777777777777-----------|
|-9-9--9-6-6--6-----------6-6--6----------------------------------------|

E
|-----------------------------------------------------------------------|
|-----------------------------------------------------------------------|
|-----------------------------------------------------------------------|
|-9-9--9-6-6--6-8-8--8-9-9--9-8---------88889---------9999--------------|
|-9-9--9-6-6--6-6-6--6-7-7--7-6666666666666677777777777777--------------|
|-9-9--9-6-6--6---------------------------------------------------------|

F                           G
|-------------------------|---------------------------------------------|
|-------------------------|---------------------------------------------|
|-------------------------|---------------------------------------------|
|-676-676-676-676-676-676-|-99764467------------------------------------|
|-676-676-676-676-676-676-|-99764467------------------------------------|
|-676-676-676-676-676-676-|-99764467------------------------------------|


H
|-----------------------------------------------------------------------|
|-----------------------------------------------------------------------|
|-----------------------------------------------------------------------|
|-6----8----9--12\--6----8----9--12\------------------------------------|
|-6----6----7--12\--6----6----7--12\------------------------------------|
|-6------------12\--6------------12\------------------------------------|

I
|-----------------------------------------------------------------------|
|-----------------------------------------------------------------------|
|----------------------------------------------------7-77777777777777---|
|-6-66666666666666-9-99999999999999-8-88888888888888-5-55555555555555---|
|-6-66666666666666-7-77777777777777-6-66666666666666--------------------|
|-6-66666666666666------------------------------------------------------|
      pm               pm               pm               pm

J                    K
|------------------|-----------------------------------------------------|
|------------------|-----------------------------------------------------|
|------------------|-----------------------------------------------------|
|-9x8-6x8-11x8-6x8-|-8-----------8888-9-----------9999-------------------|
|-9---6----9---6---|-6666666666666666-7777777777777777-------------------|
|-9---6--------6---|-----------------------------------------------------|

The End, Now Heres The Order

A
B
C x2
D
E
F
G
C x2
D
E
H
I x2
J
K
J
K
F
K
F with 2 extra power chords
K x3
A

That should be right the order might be a little of but if yuo listen to the song you 
get it

6. TENTATIVE - Tabbed by shotgunjoe with edit by Slyo
WOW!!! SUCH A GREAT SONG!!! It works for me, it may work for you too.

INTRO
-3-3-----------------3-3-3-|
-3-3-----------------3-3-3-|
---------------------------|
---------------------------| x 2.
---------------------------|
-----0-0-0-0-0-0-0-0-------|

VERSE 1
-3-3-----------------3-3-3-|
-3-3-----------------3-3-3-|
---------------------------|
---------------------------|
---------------------------|
-----0-0-0-0-0-0-0-0-------|

PRE CHORUS
-----------------------------------------------------------------------|
-----------------------------------------------------------------------|
-------------------------------------------10-10---10-10-10-10-10-(x2)-|
-0-0---0-0-0-0-0-(x2)-7-7---7-7-7-7-7-(x2)-10-10---10-10-10-10-10------|
-0-0---0-0-0-0-0------7-7---7-7-7-7-7------8--8----8--8--8--8--8-------|
-0-0---0-0-0-0-0------7-7---7-7-7-7-7----------------------------------|

----------------------|
----------------------|
----------------------|
-7-7---7-7-7-7-7-(x2)-|
-7-7---7-7-7-7-7------|
-7-7---7-7-7-7-7------|

CHORUS
--------------------------------------------|
--------------------------------------------|
------------------------------10------5-----|
-0-----0--8------8--7------7--10------5-----| x2
-0-----0--8------8--7------7--8-------3-----|
-0-----0--8------8--7------7----------------|

BRIDGE
------------------------------------------------|
-5---5-----5--6---5--5---5--6---5--5---5----5---|
--5---5-----5--5-5-5------5--5-5-5----5-5--5-5--|
-------------7--7---7------7--7---7------5----5-|
-------------------------------------8----7-----|
--------8-8-----------7-7-----------------------|

ORDER
INTRO
VERSE x 6
PRE CHORUS
CHORUS
VERSE
PRE CHORUS
CHORUS
BRIDGE x 4
VERSE (carry on the last 3 bit on Eb and Bb strings 6 times)
CHORUS (and no I didnt miss pre chorus)(play the last 3 notes of the chorus again after
them once)
BRIDGE x 1

7. U-FIG - Tabbed by Maitinin
Tunings: Db Ab Db Gb Bb Eb
         C# G# C# F# A# D#
Gtr I - Electric, Overdriven
Gtr II - Electric, Ditstorted
Gtr III - Electric, Lightly Overdriven
Gtr IV - Electric, Clean
Gtr V - Electric, Clean

 Intro:
  3/4
  Q=115 bpm
  Gtr I
      Db5            Dbsus2          Dbm                           Abm/Db
      E    S E   S   E   S E   S     E    S  E    S   E      E     E
||-------------------------------|--------------------------------(5)---|
||o-(10)-----------(10)----------|-(10)---------------------------(5)---|
||----7----7-7---7---9---9-9---9-|--10---10-10---10--10------9-----5----|
||----0----0-0---0---0---0-0---0-|---0----0--0----0---0------0-----0----|
||o------------------------------|--------------------------------------|
||-------------------------------|--------------------------------------|


  E.    E   S E   S E   S    E    S  E    S  E   E   E
|-------------------------|------------------------------|
|-------------------------|------------------------------|
|-7-----7---7-9---9-9---9-|-10---10-10---10-10---9---5---|
|-0-----0---0-0---0-0---0-|--0----0--0----0--0---0---0---|
|-------------------------|------------------------------|
|-------------------------|------------------------------|


  A5                         A(b5)
  E.     E.    E    E  E     E.    E.    E   E   E
|--------------------------|--------------------------||
|--------------------------|-------------------------o||
|-------10---------10------|-------9---------9--------||
|-8------------8-------8---|-8-----------8-------8----||
|--------------------------|-------------------------o||
|--------------------------|--------------------------||


 1st Verse:
  Gtr I, II
    N.C.
    S S S S S S S S S S S S   S S S S S S S S S S S S  3x
||--------------------------|--------------------------||
||o-------------------------|-------------------------o||
||--------------------------|--------------------------||
||--------------------------|--------------------------||
||o-------------------------|-------------------------o||
||--0h2-2-2-2-2-3p2-2-2-2-2-|-0h2-2-2-2-2-3p2-2-2-2-2--||
...melt in the sun, melt in the sun...


 Chorus:
  Gtr I, II
    Db5           Db5   B5      Db5           N.C.
                                              PM--------------------|
    Q.    Q.      Q.    E E E   Q.    Q.      S S S S S S S S S S S S
||--------------|-------------|-------------|--------------------------||
||o-------------|-------------|-------------|-------------------------o||
||--7-----7-----|-7-----------|-7-----7-----|--------------------------||
||--7-----7-----|-7-------5---|-7-----7-----|--------------------------||
||o-5-----5-----|-5-----3---3-|-5-----5-----|-6-5-6-5-6-5-6-5-6-5-6-5-o||
||--------------|-------------|-------------|--------------------------||
...you and me should go outside...


 2nd Verse:
similar to 1st Verse


 Chorus: 2x
similar to previous


 Bridge:
similar to Intro, then:


  Gtr I
  E.    E   S E.    E   S    E.     E    S  E   E   E
|-------------------------|-----------------------------|
|-------------------------|-----------------------------|
|-7-----7---7-9-----9---9-|-10-----10---10-10---9---5---|
|-0-----0---0-0-----0---0-|--0------0----0--0---0---0---|
|-------------------------|-----------------------------|
|-------------------------|-----------------------------|


    E.     E.    E    E  E     E.    E.    E   E   E
||---------------------------|--------------------------||
||o--------------------------|-------------------------o||
||--------10---------10------|-------9---------9--------||
||--8------------8-------8---|-8-----------8-------8----||
||o--------------------------|-------------------------o||
||---------------------------|--------------------------||
...realize you’re blind...

  Gtr I
     E   S E   S  E   S E   S    E    S  E    S   E   E   E
||----------------------------|--------------------------------||
||o---------------------------|-------------------------------o||
||---7---7-7---7--9---9-9---9-|-10---10-10---10--10---9---5----||
||---0---0-0---0--0---0-0---0-|--0----0--0----0---0---0---0----||
||o---------------------------|-------------------------------o||
||----------------------------|--------------------------------||
|
| Gtr II
|    E.           E.             E.               E.
||----------------------------|--------------------------------||
||o---------------------------|-------------------------------o||
||--14-----------14-----------|-14---------------14------------||
||---x------------x-----------|--x----------------x------------||
||o-12-----------12-----------|-12---------------12-----------o||
||---0------------0-----------|--0----------------0------------||


 Interlude: (now, this is one of the reasons, why SOAD has achieved such an
attention that they have today. The beauty and peaceful parts represent the
aforementioned American Dream world, while the heavy parts represent the real
world, which you suddenly, and 'interuptively', are hurled in to.

 Gtr III
    E                                     B
    E     S  S  S  S  E    S  S  S  S     E     S  S  S  S  E    S  S  S  S
|-------------------------------------|-------------------------------------|
|-(13)--------------------------------|-------------------------------------|
|--14----14-14-14-14-14---14-14-14-14-|-(12)--------------------------------|
|--15----15-15-15-15-15---15-15-15-15-|--14----14-14-14-14-14---14-14-14-14-|
|-------------------------------------|--15----15-15-15-15-15---15-15-15-15-|
|-------------------------------------|-------------------------------------|
|
|Gtr IV
| H                        E     E       H                       Q
|-------------------------------------|-------------------------------------|
|-------------------------------------|-13----------------------------------|
|-------------------------14----15----|-------------------------------------|
|-------------------------------------|-------------------------------------|
|-------------------------------------|-------------------------------------|
|-------------------------------------|-------------------------------------|


    A                                        /Bb        /A
    E     S    S   S    S   E        S    S   E          E    S  S  S  S  E    S    S   S S
|-----------------------------------------------------|--------------------------------------|
|-(15)------------------------------------------------|--------------------------------------|
|-----------------------------------------------------|--------------------------------------|
|--15----15---15--15---15--15-------15---15--15-------|-15---15-15-15-15-15---15---15--15-15-|
|--13----13---13--13---13--13-------13---13--12-------|-13---13-13-13-13-13---13---13--13-13-|
|-----------------------------------------------------|--------------------------------------|
|
|         |--3--|  |--3--|  |--3--|  |--3--|  |--3--|                          |--3--|
|   E     S  S  S  S  S  S  S  S  S  S  S  S  S  S  S    H                     S  S  S  E
|-----------------------------------------------------|--------------------------------------|
|--------15-15-15-15-15-15-15-15-15-15-15-15-15-15-15-|-15\----------------------------------|
|-----------------------------------------------------|-----------------------15-15-15-14----|
|-----------------------------------------------------|--------------------------------------|
|-----------------------------------------------------|--------------------------------------|
|-----------------------------------------------------|--------------------------------------|


   E    S  S  S  S  E    S  S  S  S    E    S  S  S  S  E    S  S  S  S
|-----------------------------------|-----------------------------------|
|-----------------------------------|-----------------------------------|
|-14---14-14-14-14-14---14-14-14-14-|------------------15---------------|
|-15---15-15-15-15-15---15-15-15-15-|-14---14-14-14-14-14---14-14-14-14-|
|-----------------------------------|-15---15-15-15-15-15---15-15-15-15-|
|-----------------------------------|-----------------------------------|
|
|  Q.               Q          E       Q.               E    E     E
|-----------------------------------|-----------------------------------|
|-----------------------------------|-----------------------------------|
|-14---------------12---------------|-----------------------------------|
|-----------------------------15----|-14---------------14---15----14----|
|-----------------------------------|-----------------------------------|
|-----------------------------------|-----------------------------------|


   E    S  S  S  S  E    S  S  E      E    S  S  S  S  E    S  S  S  S
|----------------------------------|-----------------------------------|
|----------------------------------|-----------------------------------|
|----------------------------------|-----------------------------------|
|-15---15-15-15-15-15---15-15-15---|-15---15-15-15-15-15---15-15-15-15-|
|-13---13-13-13-13-13---13-13-12---|-13---13-13-13-13-13---13-13-13-13-|
|----------------------------------|-----------------------------------|
|
|  Q          E     Q          E      H                     Q
|----------------------------------|-----------------------------------|
|----------------------------------|-----------------------------------|
|----------------------------------|-----------------------------------|
|-12-------------------------------|-----------------------------------|
|------------15----13---------12---|-13--------------------------------|
|----------------------------------|-----------------------------------|

  Gtr I, II
    S S S S S S S S S S S S   S S S S S S S S S S S S
||--------------------------|--------------------------||
||o-------------------------|-------------------------o||
||--------------------------|--------------------------||
||--------------------------|--------------------------||
||o-------------------------|-------------------------o||
||--0h2-2-2-2-2-3p2-2-2-2-2-|-0h2-2-2-2-2-3p2-2-2-2-2--||

 Gtr III
   E        S    S   S    S   E        S    S   S    S     E        S    S   S    S   E  
     S    S   S    S
|-------------------------------------------------------|-------------------------------------------------------|
|-------------------------------------------------------|-------------------------------------------------------|
|-14-------14---14--14---14--14-------14---14--14---14--|----------------------------15-------------------------|
|-15-------15---15--15---15--15-------15---15--15---15--|-14-------14---14--14---14--14-------14---14--14---14--|
|-------------------------------------------------------|-15-------15---15--15---15--15-------15---15--15---15--|
|-------------------------------------------------------|-------------------------------------------------------|
|
|Gtr IV
|  |--3--|  |--3--|  |--3--|  |--3--|  |--3--|  |--3--|    |--3--|  |--3--|  |--3--|  |--3--| |--3--|
|  S  S  S  S  S  S  S  S  S  S  S  S  S  S  S  S  S  S    S  S  S  S  S  S  S  S  S  S  
 S  S  S  S  E
|-17-17-17-17-17-17-17-17-17-17-17-17-17-17-17-17-17-17-|-18-18-18-18-18-18-18-18-18-18-18-18-18-18-18------|
|-------------------------------------------------------|----------------------------------------------15---|
|-------------------------------------------------------|---------------------------------------------------|
|-------------------------------------------------------|---------------------------------------------------|
|-------------------------------------------------------|---------------------------------------------------|
|-------------------------------------------------------|---------------------------------------------------|
|
|Gtr V
|  |--3--|  |--3--|  |--3--|  |--3--|  |--3--|  |--3--|    |--3--|  |--3--|  |--3--|  |--3--| |--3--|
|  S  S  S  S  S  S  S  S  S  S  S  S  S  S  S  S  S  S    S  S  S  S  S  S  S  S  S  S  
 S  S  S  S  E
|-------------------------------------------------------|---------------------------------------------------|
|-15-15-15-15-15-15-15-15-15-15-15-15-15-15-15-15-15-15-|-17-17-17-17-17-17-17-17-17-17-17-17-17-17-17------|
|-------------------------------------------------------|----------------------------------------------15---|
|-------------------------------------------------------|---------------------------------------------------|
|-------------------------------------------------------|---------------------------------------------------|
|-------------------------------------------------------|---------------------------------------------------|


    E     S  S  S  S  E    S  S  E       E     S  S  S  S  E    S  S  S  S
|------------------------------------|-------------------------------------|
|------------------------------------|-------------------------------------|
|------------------------------------|-------------------------------------|
|--15----15-15-15-15-15---15-15-15---|--15----15-15-15-15-15---15-15-15-15-|
|--13----13-13-13-13-13---13-13-12---|--13----13-13-13-13-13---13-13-13-13-|
|------------------------------------|-------------------------------------|
|
|  +Q           E     Q.                +H                      Q
|------------------------------------|-------------------------------------|
|-(15)---------13--------------------|-------------------------------------|
|--------------------15--------------|-(15)--------------------------------|
|------------------------------------|-------------------------------------|
|------------------------------------|-------------------------------------|
|------------------------------------|-------------------------------------|
|
|  +Q           E     Q.                +H                      Q
|------------------------------------|-------------------------------------|
|------------------------------------|-------------------------------------|
|-(15)---------14--------------------|-------------------------------------|
|--------------------17--------------|-(17)--------------------------------|
|------------------------------------|-------------------------------------|
|------------------------------------|-------------------------------------|

  Gtr I, II
    S S S S S S S S S S S S   S S S S S S S S S S S S
||--------------------------|--------------------------||
||o-------------------------|-------------------------o||
||--------------------------|--------------------------||
||--------------------------|--------------------------||
||o-------------------------|-------------------------o||
||--0h2-2-2-2-2-3p2-2-2-2-2-|-0h2-2-2-2-2-3p2-2-2-2-2--||


 Chorus:
  Gtr I, II
                                             1. 2. 3.                    4.
                                              PM--------------------|      PM--------------------|
    Q.    Q.      Q.    E E E   Q.    Q.      S S S S S S S S S S S S      S S S S S S S 
S S S S  3x
||--------------|-------------|-------------|--------------------------||---------------------------||
||o-------------|-------------|-------------|-------------------------o||o--------------------------||
||--7-----7-----|-7-----------|-7-----7-----|--------------------------||---------------------------||
||--7-----7-----|-7-------5---|-7-----7-----|--------------------------||---------------------------||
||o-5-----5-----|-5-----3---3-|-5-----5-----|-6-5-6-5-6-5-6-5-6-5-6-5-o||o-6-5-6-5-6-5-6-5-6-5-6-5-o||
||--------------|-------------|-------------|--------------------------||---------------------------||


 Outro:
  Gtr I
    E   S E   S E   S E   S    E    S  E    S  E   E   E
||--------------------------|-------------------------------||
||o-------------------------|------------------------------o||
||--7---7-7---7-9---9-9---9-|-10---10-10---10-10---9---5----||
||--0---0-0---0-0---0-0---0-|--0----0--0----0--0---0---0----||
||o-------------------------|------------------------------o||
||--------------------------|-------------------------------||


    A5                          Aadd#11
    E.     E   S E    E   E     E.    E   S E   E   E
||----------------------------|--------------------------||
||o---------------------------|-------------------------o||
||--------10---------10-------|-------9---------9--------||
||-------------8----------8---|-----------8---------8----||
||o--------------8------------|-------------8-----------o||
||--8-------------------------|-8------------------------||

 (slow down here)
    Ab5
                                |-------3-------|          Ab7        Db5
    E.    E   S E   E   E    2x Q.      Q.      Q.         H.         H.
||---------------------------||-------------------------|----------|-----------|
||o-------------------------o||-------------------------|----------|-----------|
||--------9---------9--------||---------9---------------|-9^-------|-14^-------|
||------------7---------7----||-----------------7-------|-7^-------|-12^-------|
||o-------------7-----------o||-7-----------------------|-7^-------|-12^-------|
||--7------------------------||-------------------------|-7^-------|-12^-------|


8. HOLY MOUNTAINS - Tabbed by Maitinin
Tuning: Db Ab Db Gb Bb Eb
        C# G# C# F# A# D#
Gtr I - Electric, Clean (lovely clean sound)
Gtr II - Electric, Distorted
Gtr III - Electric, Clean w/ Tremolo effect

 Intro:
  75 bpm
  4/4
  Gtr I
    S S S S S S S S S S S S S S S   S    S S S S  S S S S S S S S S S S S
||------------------------------------|-----------------------------------|
||o-----------------------------------|-----------------------------------|
||------------------------------------|-----------------------------------|
||------0---------0-----0-------0-----|------0------0---------0-------0---|
||o---0---0---0-------0---0---0-------|----0---0--------0---0---0---0---0-|
||--0-------0---8---7-------7-----/12-|-12-------12---8---5-------5-------|


                                   1.                                  2.
                                                                       2/4
  S S S S S S S S S S S S S S S S   S S S S S S S S S S S S S S S S     S S S S S S S S
|---------------------------------|----------------------------------||-----------------|
|---------------------------------|---------------------------------o||-----------------|
|---------------------------------|----------------------------------||-----------------|
|-----0-----0---------0-------0---|-----0-----0---------0-------0----||-----0-----0-----|
|---0---0-------0---0---0---0---0-|---0---0-----------0---0---0---0-o||---0---0---------|
|-3-------3---8---7-------7-------|-2-------2---3-2-0-------0--------||-2-------2---3-2-|

 Gtr I, II
 4/4
  Db5          A5  Ab5                Db(octave)   A5Ab5Gb5
  E   S. T S S E   E   S. T S S S S   E   S. T S S S S E   S. T S S S S
|-----------------------------------|-----------------------------------|
|-----------------------------------|-----------------------------------|
|-----------------------------------|-7---7--7-7-7----------------------|
|-0---0--0-0-0-8---7---7--7-7-7-7-0-|-x---x--x-x-x-8-7-5---5--5-5-5-5-0-|
|-0---0--0-0-0-8---7---7--7-7-7-7-0-|-5---5--5-5-5-8-7-5---5--5-5-5-5-0-|
|-0---0--0-0-0-8---7---7--7-7-7-7-0-|--------------8-7-5---5--5-5-5-5-0-|
|-Rhy Fig 1


                                     2/4
  E5           A5  Ab5                Eb5          E5Eb5 Db5
  E   S. T S S E   E   S. T S S S S   E   S. T S S S S   E    T  T  T  T T T T T T T T T
|-----------------------------------|------------------|---------------------------------|
|-----------------------------------|------------------|---------------------------------|
|-----------------------------------|------------------|---------------------------------|
|-3---3--3-3-3-8---7---7--7-7-7-7-0-|-2---2--2-2-2-3-2-|-0---12-12-11-10-9-8-7-6-5-4-3-2-|
|-3---3--3-3-3-8---7---7--7-7-7-7-0-|-2---2--2-2-2-3-2-|-0---12-12-11-10-9-8-7-6-5-4-3-2-|
|-3---3--3-3-3-8---7---7--7-7-7-7-0-|-2---2--2-2-2-3-2-|-0-------------------------------|
                                         end Rhy Fig 1-|-Fill                   end Fill-|

 4/4
  Db5         A5  Ab5               Db(octave)  A5Ab5Gb5
  Q       E   E   Q       E   S S   Q       E   S S Q       E   S S
|---------------------------------|---------------------------------|
|---------------------------------|---------------------------------|
|---------------------------------|-7-------7-----------------------|
|-0-------0---8---7-------7---7-0-|-x-------x---8-7-5-------5---5-0-|
|-0-------0---8---7-------7---7-0-|-5-------5---8-7-5-------5---5-0-|
|-0-------0---8---7-------7---7-0-|-------------8-7-5-------5---5-0-|
|-Rhy Fig 2


                                   2/4               4/4
  E5          A5  Ab5               Eb5     E5  Eb5   Db5              Db5
 Gtr I
  Q       E   E   Q       E   S S   Q       E   E     W                W
|---------------------------------|-----------------|---------------|----------------|
|---------------------------------|-----------------|---------------|----------------|
|---------------------------------|-----------------|---------------|----------------|
|-3-------3---8---7-------7---7-0-|-2-------3---2---|-0-------------|--0-------------|
|-3-------3---8---7-------7---7-0-|-2-------3---2---|-0-------------|--0-------------|
|-3-------3---8---7-------7---7-0-|-2-------3---2---|-0-------------|--0-------------|
|                                     end Rhy Fig 2-|
|
|Gtr II
| Q       E   E   Q       E   S S   Q       E   E     W               +W
|---------------------------------|-----------------|---------------|----------------|
|---------------------------------|-----------------|---------------|----------------|
|---------------------------------|-----------------|---------------|----------------|
|-3-------3---8---7-------7---7-0-|-2-------3---2---|-0-------------|-(0)------------|
|-3-------3---8---7-------7---7-0-|-2-------3---2---|-0-------------|-(0)------------|
|-3-------3---8---7-------7---7-0-|-2-------3---2---|-0-------------|-(0)------------|


 1st Verse:
 Gtr III
  W                 W                 H       H         Q   Q    Q    Q
|-----------------|-----------------|-----------------|-------------------|
|-----------------|-----------------|-----------------|-------------------|
|-----------------|-----------------|-----------------|-------------------|
|-----------------|-----------------|-----------------|-------------------|
|-----------------|-----------------|-----------------|-------------------|
|-0---------------|-2---------------|-3-------5-------|-7---8---10---12---|
|-Rhy Fig 3                                                 end Rhy Fig 3-|
...can you feel their haunting presence...

 Gtr I
 w/Rhy Fig 3
   S  S  S  S  S  S  S  S  S  S  S  S  S  S  S  S    S  S  S  S  S  S  S  S  S  S  S  S  S S  S  S
|-10-------10-------10-------10-------10----------|-12-------12-------12-------12-------12----------|
|----10-------10-------10-------10-------10----10-|----10-------10-------10-------10-------10----10-|
|-------10-------10-------10-------10-------10----|-------10-------10-------10-------10-------10----|
|-------------------------------------------------|-------------------------------------------------|
|-------------------------------------------------|-------------------------------------------------|
|-------------------------------------------------|-------------------------------------------------|
|-Rhy Fig 4


   S  S  S  S  S  S  S  S  S  S  S  S  S  S  S  S    S  S  S  S  S  S  S  S  S  S  S  S  S S  S  S
|-13-------13-------13----15-------15-------15----|-17-17-17-17-18-18-18-18-20-20-20-20-22-22-22-22-|
|----10-------10-------10----10-------10-------10-|-------------------------------------------------|
|-------10-------10-------------10-------10-------|-------------------------------------------------|
|-------------------------------------------------|-------------------------------------------------|
|-------------------------------------------------|-------------------------------------------------|
|-------------------------------------------------|-------------------------------------------------|
                                                                                      
Rhy Fig 4-|


 Chorus:
  Gtr II
    D5      N.C.D5      N.C.D5        N.C.D5      Db5 E5  Db5 D5
    E   E   E   E   E   E   E   E     E   E   E   E   E   E   E   E
||----------------------------------|---------------------------------|
||o---------------------------------|---------------------------------|
||----------------------------------|---------------------------------|
||--1---1-------1---1-------1---1---|-----1---1---0---3---1---0---0---|
||o-1---1-------1---1-------1---1---|-----1---1---0---3---1---0---0---|
||--1---1-------1---1-------1---1---|-----1---1---0---3---1---0---0---|
...liar, killer, demon...


 1.
  Db      Eb       E           Gb            Ab          A           B           Db (octaves)
  S S S S S S S S  S  S  S  S  S  S  S  S    S  S  S  S  S  S  S  S  S  S  S  S  S  S  S 
S
|-----------------------------------------|--------------------------------------------------||
|-----------------------------------------|-------------------------------------------------o||
|-7-7-7-7-9-9-9-9-10-10-10-10-12-12-12-12-|-14-14-14-14-15-15-15-15-17-17-17-17-19-19-19-19--||
|-x-x-x-x-x-x-x-x--x--x--x--x--x--x--x--x-|--x--x--x--x--x--x--x--x--x--x--x--x--x--x--x--x--||
|-5-5-5-5-7-7-7-7--8--8--8--8-10-10-10-10-|-12-12-12-12-13-13-13-13-15-15-15-15-17-17-17-17-o||
|-----------------------------------------|--------------------------------------------------||


 2.
    A5                  Ab5 Gb5 Ab5   Db5
    Q       E.    S E   E   E   E     Q       E.    S E   E   S S E    2x
||----------------------------------|----------------------------------||
||o---------------------------------|---------------------------------o||
||----------------------------------|----------------------------------||
||--8-------8-----8-8---7---5---7---|-0-------0-----0-0---0---0-0-0----||
||o-8-------8-----8-8---7---5---7---|-0-------0-----0-0---0---0-0-0---o||
||--8-------8-----8-8---7---5---7---|-0-------0-----0-0---0---0-0-0----||
...freedom, freedom...


  A5                  Ab5 Gb5 Ab5
  Q       E.    S E   E   E   E
|---------------------------------|
|---------------------------------|
|---------------------------------|
|-8-------8-----8-8---7---5---7---|
|-8-------8-----8-8---7---5---7---|
|-8-------8-----8-8---7---5---7---|


 Interlude:
Rhy Fig 2


 2nd Verse:
Rhy Fig 3 + 4


 Chorus:
similar to previous


 Pre-Bridge:
 Gtr III
  Q   Q   Q   Q     Q   Q   Q   Q     E E E E E E E E   E E E E E E E E
|-----------------|-----------------|-----------------|-----------------|
|-----------------|-----------------|-----------------|-----------------|
|-----------------|-----------------|-----------------|-----------------|
|-------------0---|-------------0---|-------0-------0-|-------0-------0-|
|-0---1---3-------|-0---1---3-------|-0-1-3---0-1-3---|-0-1-3---0-1-3---|
|-----------------|-----------------|-----------------|-----------------|


  Gtr II
    PM------------------------------------|
    S S S S  S  S  S  S S S S S  S  S  S  S  3x
||-------------------------------------------||
||o-----------------------------------------o||
||-------------------------------------------||
||-------------------------------------------||
||o-----------------------------------------o||
||--7-7-8-8-10-10-12-12-7-7-8-8-10-10-12-12--||


 Bridge:
Rhy Fig 1  w/Fill

Rhy Fig 1


 Final Chorus:
  Gtr II
    D5      N.C.D5      N.C.D5         D5           Db5 E5  Db5 D5
    E   E   E   E   E   E   S S S S   +E    E   E   E   E   E   E   E
||----------------------------------|-----------------------------------|
||o---------------------------------|-----------------------------------|
||----------------------------------|-----------------------------------|
||--1---1-------1---1-------1-1-1-1-|-(1)---1---1---0---3---1---0---0---|
||o-1---1-------1---1-------1-1-1-1-|-(1)---1---1---0---3---1---0---0---|
||--1---1-------1---1-------1-1-1-1-|-(1)---1---1---0---3---1---0---0---|
...liar, killer, demon...


 1.
Rhy Fig 1


 2.
    Q       E.    S E   E   E   E     Q       E.    S E   E   S S E    2x
||----------------------------------|----------------------------------||
||o---------------------------------|---------------------------------o||
||----------------------------------|----------------------------------||
||--8-------8-----8-8---7---5---7---|-0-------0-----0-0---0---0-0-0----||
||o-8-------8-----8-8---7---5---7---|-0-------0-----0-0---0---0-0-0---o||
||--8-------8-----8-8---7---5---7---|-0-------0-----0-0---0---0-0-0----||


  Q       E.    S E   E   E   E
|---------------------------------|
|---------------------------------|
|---------------------------------|
|-8-------8-----8-8---7---5---7---|
|-8-------8-----8-8---7---5---7---|
|-8-------8-----8-8---7---5---7---|


 Post-Chorus:
Rhy Fig 1  w/Fill

 Outro:
 Gtr II
  Q.          E   Q.          S S   Q.          S S H
|---------------------------------|---------------------------------|
|---------------------------------|---------------------------------|
|---------------------------------|-7-------------------------------|
|-0-----------8---7-----------7-0-|-x-----------8-7-5---------------|
|-0-----------8---7-----------7-0-|-5-----------8-7-5---------------|
|-0-----------8---7-----------7-0-|-------------8-7-5---------------|


                                     2/4
  Q.          E   Q        Q          Q       E   E
|-----------------------------------|-----------------|------|
|-----------------------------------|-----------------|------|
|-----------------------------------|-----------------|------|
|-3-----------8---7-------12\-------|-2-------3---2---|-0*---|  *let this chord ring throughout
|-3-----------8---7-------12\-------|-2-------3---2---|-0*---|   the rest of the song 
even
|-3-----------8---7-------12\-------|-2-------3---2---|-0*---|   into Vicinity of Obscenity

(slow down completely during this ending part)
 4/4
 Gtr I
  S S S S S S S S S S S S S S S S    S S S S  S S S S S S S S S S S S
|---------------------------------|-----------------------------------|
|---------------------------------|-----------------------------------|
|---------------------------------|-----------------------------------|
|-----0---------0-----0-------0---|------0------0---------0-------0---|
|---0---0---0-------0---0---0---0-|----0---0--------0---0---0---0---0-|
|-0-------0---8---7-------7-------|-12-------12---8---5-------5-------|


  S S S S S S S S S S S S S S E     S S S S S S S S S S E   S S E
|---------------------------------|---------------------------------|
|---------------------------------|---------------------------------|
|---------------------------------|---------------------------------|
|-----0-----0---------0-------0---|-----0-----0---0-----0-------0---|
|---0---0-------0---0---0---0-----|---0---0-----------0-------0-----|
|-3-------3---8---7-------7-------|-2-------3---2---0-------0-------|

9. VICINITY OF OBSCENITY - Tabbed by bobbynogo
BOBBYNOGO takes no credit for this as he states he got it from another website.
Words and Music by System of a Down
Transcribed by Erik Dietrich

Gtr I (C# G# C# F# A# D#) - 'Untitled'
Gtr II (C# G# C# F# A# D#) - 'Untitled'
Gtr III (C# G# C# F# A# D#) - 'Lead'

 Intro
  Q=110
 4/4
  Gtr I
                                        |--3--|  |--3--| |-3-| |-3-|
  Wx3           S  S  S  S  S  S  S  S  S  S  S  S  S  S S S S S S S
|------------|--------------------------------------------------------|
|------------|--------------------------------------------------------|
|------------|--------------------------------------------------------|
|------------|--------------------------------------------------------|
|------------|--------------------------------------------------------|
|------------|-19-19S18-18S17-17S16-16-15S14S13S12S11S10S9S8S7S6S5S4--|


    N.C.
    PM----------------------------------------------------------------|
    S S S S S S S S S S S S S S S S  3x S S S S S S S S S S S S S S S S
||-----------------------------------||---------------------------------|
||o---------------------------------o||---------------------------------|
||-----------------------------------||---------------------------------|
||-----------------------------------||---------------------------------|
||o-----8-------7-----8---------6---o||-----8-------7-----8---------6---|
||--0-6---0-0-6---0-6---0-0-6-8---0--||-0-6---0-0-6---0-6---0-0-6-8---0-|


   Main Riff
    D5AbBbAbD5G5AbG5D5AbBbAbF5G5AbG5  D5AbBbAbD5G5AbG5D5AbBbAbF5G5AbG5
    S S S S S S S S S S S S S S S S   S S S S S S S S S S S S S S S S
||----------------------------------|----------------------------------||
||o---------------------------------|---------------------------------o||
||----------------------------------|----------------------------------||
||--0-6-8-6-0-5-6-5-0-6-8-6-3-5-6-5-|-0-6-8-6-0-5-6-5-0-6-8-6-3-5-6-5--||
||o-0-6-8-6-0-5-6-5-0-6-8-6-3-5-6-5-|-0-6-8-6-0-5-6-5-0-6-8-6-3-5-6-5-o||
||--0-6-8-6-0-5-6-5-0-6-8-6-3-5-6-5-|-0-6-8-6-0-5-6-5-0-6-8-6-3-5-6-5--||


   Interlude
    N.C.
   7/4
    PM----------------------------------------------|
    S S S S S S S S S S S S S S S S S S S S S S S S Q
||------------------------------------------------------||
||o----------------------------------------------------o||
||------------------------------------------------------||
||------------------------------------------------------||
||o-------------------5-4-----------5-4-----5-4--------o||
||--4-6-7-4-6-7-4-6-7-----7-6-4-6-7-----7-6-----7-6-4---||


   Verse
                                      1.,2.,3.
    D5AbBbAbD5G5AbG5D5AbBbAbF5G5AbG5   N.C.
   4/4
                                       PM----------------------|
    S S S S S S S S S S S S S S S S    S S S S S S S S S S S S Q
||----------------------------------||-----------------------------||
||o---------------------------------||----------------------------o||
||----------------------------------||-----------------------------||
||--0-6-8-6-0-5-6-5-0-6-8-6-3-5-6-5-||-----------------------------||
||o-0-6-8-6-0-5-6-5-0-6-8-6-3-5-6-5-||-5-4-----5-4-----5-4--------o||
||--0-6-8-6-0-5-6-5-0-6-8-6-3-5-6-5-||-----7-6-----7-6-----7-6-4---||


  4.
  N.C.
  PM------|   PM------|     PM------|   PM------|
  S S S S E e S S S S E e   S S S S E e S S S S E e
|-------------------------|-------------------------|
|-------------------------|-------------------------|
|-------------------------|-------------------------|
|-----------4-----------4-|-----------4-----------4-|
|-5-4---------5-4---------|-5-4---------5-4---------|
|-----7-6-4-------7-6-4---|-----7-6-4-------7-6-4---|


 Prechorus
  $
  F#G#A5F#G#A5F#G#A5F#G#A5    A5G#5 F#G#A5    A5G#F#5   A5G#F#5
  PM------------------------------------------------------|
  S S S S S S S S S S S S S S S S   S S S S S S S S S S S S Q
|---------------------------------|----------------------------|
|---------------------------------|----------------------------|
|---------------------------------|----------------------------|
|---------------------------------|-------------------------4--|
|-4-6-7-4-6-7-4-6-7-4-6-7-5-4-7-6-|-4-6-7-5-4-7-6-4-5-4-7-6-4--|
|-4-6-7-4-6-7-4-6-7-4-6-7-----7-6-|-4-6-7-----7-6-4-----7-6-4--|


  F#G#A5F#G#A5F#G#A5F#G#A5    A5G#5 F#G#A5    A5G#F#5   A5G#F#5
  PM--------------------------------------------------------|
  S S S S S S S S S S S S S S S S   S S S S S S S S S S S S q
|---------------------------------|----------------------------|
|---------------------------------|----------------------------|
|---------------------------------|----------------------------|
|---------------------------------|----------------------------|
|-4-6-7-4-6-7-4-6-7-4-6-7-5-4-7-6-|-4-6-7-5-4-7-6-4-5-4-7-6-4--|
|-4-6-7-4-6-7-4-6-7-4-6-7-----7-6-|-4-6-7-----7-6-4-----7-6-4--|


   Chorus
                                                       To Coda
    G5 A5      B5     Bm          B5 A5      G5     Gmaj7
    Gtr II
    E. S +S  S E +Q    S   S  E   E. S +S  S E +Q    S   S  E   4x
||------------------------------|--------------------7---7------||
||o--------------------7---7----|--------------------7---7-----o||
||---------------------7---7----|--------------------7---7------||
||--------------------(9)-(9)---|-------------------(5)-(5)-----||
||o-5--7-(7)---9-(9)------------|-9--7-(7)---5-(5)-------------o||
||--5--7-(7)---9-(9)------------|-9--7-(7)---5-(5)--------------||


   Interlude
    N.C.
   7/4
    Gtr I
    PM----------------------------------------------|
    S S S S S S S S S S S S S S S S S S S S S S S S Q
||------------------------------------------------------||
||o----------------------------------------------------o||
||------------------------------------------------------||
||------------------------------------------------------||
||o-------------------5-4-----------5-4-----5-4--------o||
||--4-6-7-4-6-7-4-6-7-----7-6-4-6-7-----7-6-----7-6-4---||


 Verse
  D5AbBbAbD5G5AbG5D5AbBbAbF5G5AbG5   N.C.
 4/4
                                     PM----------------------|
  S S S S S S S S S S S S S S S S    S S S S S S S S S S S S Q
|---------------------------------||-----------------------------|
|---------------------------------||-----------------------------|
|---------------------------------||-----------------------------|
|-0-6-8-6-0-5-6-5-0-6-8-6-3-5-6-5-||-----------------------------|
|-0-6-8-6-0-5-6-5-0-6-8-6-3-5-6-5-||-5-4-----5-4-----5-4---------|
|-0-6-8-6-0-5-6-5-0-6-8-6-3-5-6-5-||-----7-6-----7-6-----7-6-4---|


                                                  D.S. al Coda
  D5AbBbAbD5G5AbG5D5AbBbAbF5G5AbG5    N.C.
                                      PM------|   PM------|
  S S S S S S S S S S S S S S S S     S S S S E e S S S S E e
|---------------------------------||----------------------------||
|---------------------------------||o--------------------------o||
|---------------------------------||----------------------------||
|-0-6-8-6-0-5-6-5-0-6-8-6-3-5-6-5-||------------4-----------4---||
|-0-6-8-6-0-5-6-5-0-6-8-6-3-5-6-5-||o-5-4---------5-4----------o||
|-0-6-8-6-0-5-6-5-0-6-8-6-3-5-6-5-||------7-6-4-------7-6-4-----||


  &
  G5 A5      B5     Bm          B5 A5      G5
                               2/4
  Gtr II
  E. S +S  S E +Q    S   S  E   E. S +S  S E
|-----------------------------|--------------|
|--------------------7---7----|--------------|
|--------------------7---7----|--------------|
|-------------------(9)-(9)---|--------------|
|-5--7-(7)---9-(9)------------|-9--7-(7)---5-|
|-5--7-(7)---9-(9)------------|-9--7-(7)---5-|


                      A5
 4/4
      <               <
  +E  E E E E E E E   E E E E E E E E
|-------------------|-----------------|
|-------------------|-----------------|
|-------------------|-----------------|
|-------------------|-----------------|
|-(5)-5-5-5-5-5-5-5-|-7-7-7-7-7-7-7-7-|
|-(5)-5-5-5-5-5-5-5-|-7-7-7-7-7-7-7-7-|


 Guitar Solo
  D5   AbBbAbD5     G5AbG5D5AbBbAbF5G5AbG5  D5AbBbAbD5G5AbG5D5AbBbAbF5G5AbG5
  Gtr III
    Q           Q         H                 W
|-----------------------------------------|----------------------------------|
|-/15\-------/(15)\-----------------------|----------------------------------|
|-----------------------------------------|----------------------------------|
|-----------------------------------------|----------------------------------|
|-----------------------------------------|----------------------------------|
|-----------------------------------------|----------------------------------|
|
| Gtr I
|   S  S S S    S   S S S S S S S S S S S   S S S S S S S S S S S S S S S S
|-----------------------------------------|----------------------------------|
|-----------------------------------------|----------------------------------|
|-----------------------------------------|----------------------------------|
|---0--6-8-6----0---5-6-5-0-6-8-6-3-5-6-5-|-0-6-8-6-0-5-6-5-0-6-8-6-3-5-6-5--|
|---0--6-8-6----0---5-6-5-0-6-8-6-3-5-6-5-|-0-6-8-6-0-5-6-5-0-6-8-6-3-5-6-5--|
|---0--6-8-6----0---5-6-5-0-6-8-6-3-5-6-5-|-0-6-8-6-0-5-6-5-0-6-8-6-3-5-6-5--|


  D5   AbBbAbD5     G5AbG5D5   AbBbAbF5     G5AbG5
    Q           Q           Q           Q
|-------------------------------------------------|
|-/15\-------/(15)\-------/15\-------/(15)\-------|
|-------------------------------------------------|
|-------------------------------------------------|
|-------------------------------------------------|
|-------------------------------------------------|
|
|   S  S S S    S   S S S   S  S S S    S   S S S
|-------------------------------------------------|
|-------------------------------------------------|
|-------------------------------------------------|
|---0--6-8-6----0---5-6-5---0--6-8-6----3---5-6-5-|
|---0--6-8-6----0---5-6-5---0--6-8-6----3---5-6-5-|
|---0--6-8-6----0---5-6-5---0--6-8-6----3---5-6-5-|


  D5    AbBbAbD5      G5AbG5D5    AbBbAbF5      G5AbG5
   Q            Q            Q            Q
|------------------------------------------------------|
|-15b17-------(15)b17-------18b20-------(18)b20--------|
|------------------------------------------------------|
|------------------------------------------------------|
|------------------------------------------------------|
|------------------------------------------------------|
|
|  S    S S S   S     S S S  S    S S S   S     S S S
|------------------------------------------------------|
|------------------------------------------------------|
|------------------------------------------------------|
|--0----6-8-6---0-----5-6-5--0----6-8-6---3-----5-6-5--|
|--0----6-8-6---0-----5-6-5--0----6-8-6---3-----5-6-5--|
|--0----6-8-6---0-----5-6-5--0----6-8-6---3-----5-6-5--|


  D5    AbBbAbD5      G5AbG5D5    AbBbAbF5      G5AbG5
   Q            Q            Q            Q
|-----------------------------------------------------|
|-20b22-------(20)b22-------20b22-------(20)b22-------|
|-----------------------------------------------------|
|-----------------------------------------------------|
|-----------------------------------------------------|
|-----------------------------------------------------|
|
|  S    S S S   S     S S S  S    S S S   S     S S S
|-----------------------------------------------------|
|-----------------------------------------------------|
|-----------------------------------------------------|
|--0----6-8-6---0-----5-6-5--0----6-8-6---3-----5-6-5-|
|--0----6-8-6---0-----5-6-5--0----6-8-6---3-----5-6-5-|
|--0----6-8-6---0-----5-6-5--0----6-8-6---3-----5-6-5-|


  D5    AbBbAbD5      G5AbG5D5    AbBbAbF5      G5AbG5
   Q            Q            Q            Q
|------------------------------------------------------|
|-20b22-------(20)b22-------20b22-------(20)b22--------|
|------------------------------------------------------|
|------------------------------------------------------|
|------------------------------------------------------|
|------------------------------------------------------|
|
|  S    S S S   S     S S S  S    S S S   S     S S S
|------------------------------------------------------|
|------------------------------------------------------|
|------------------------------------------------------|
|--0----6-8-6---0-----5-6-5--0----6-8-6---3-----5-6-5--|
|--0----6-8-6---0-----5-6-5--0----6-8-6---3-----5-6-5--|
|--0----6-8-6---0-----5-6-5--0----6-8-6---3-----5-6-5--|


  D5    AbBbAbD5      G5AbG5D5    AbBbAbF5      G5AbG5
   Q            Q            Q            Q
|-----------------------------------------------------|
|-20b22-------(20)b22-------20b22-------(20)b22-------|
|-----------------------------------------------------|
|-----------------------------------------------------|
|-----------------------------------------------------|
|-----------------------------------------------------|
|
|  S    S S S   S     S S S  S    S S S   S     S S S
|-----------------------------------------------------|
|-----------------------------------------------------|
|-----------------------------------------------------|
|--0----6-8-6---0-----5-6-5--0----6-8-6---3-----5-6-5-|
|--0----6-8-6---0-----5-6-5--0----6-8-6---3-----5-6-5-|
|--0----6-8-6---0-----5-6-5--0----6-8-6---3-----5-6-5-|


  D5    AbBbAbD5      G5AbG5D5    AbBbAbF5      G5AbG5
   Q            Q            Q            Q
|------------------------------------------------------|
|-20b22r======(20)b22r======20b22r======(20)b22r=======|
|------------------------------------------------------|
|------------------------------------------------------|
|------------------------------------------------------|
|------------------------------------------------------|
|
|  S    S S S   S     S S S  S    S S S   S     S S S
|------------------------------------------------------|
|------------------------------------------------------|
|------------------------------------------------------|
|--0----6-8-6---0-----5-6-5--0----6-8-6---3-----5-6-5--|
|--0----6-8-6---0-----5-6-5--0----6-8-6---3-----5-6-5--|
|--0----6-8-6---0-----5-6-5--0----6-8-6---3-----5-6-5--|


   Outro
                                     1.,2.,3.
    F#G#A5F#G#A5F#G#A5F#G#A5    A5G#5 F#G#A5    A5G#F#5   A5G#F#5
    PM------------------------------------------------------|
    S S S S S S S S S S S S S S S S   S S S S S S S S S S S S Q   3x
||----------------------------------|-----------------------------||
||o---------------------------------|----------------------------o||
||----------------------------------|-----------------------------||
||----------------------------------|-------------------------4---||
||o-4-6-7-4-6-7-4-6-7-4-6-7-5-4-7-6-|-4-6-7-5-4-7-6-4-5-4-7-6-4--o||
||--4-6-7-4-6-7-4-6-7-4-6-7-----7-6-|-4-6-7-----7-6-4-----7-6-4---||


  4.
  F#G#A5    A5G#F#5   A5G#F#5
  PM--------------------|
  S S S S S S S S S S S S q    W
|----------------------------|------*|
|----------------------------|------*|
|----------------------------|------*|
|-------------------------4--|------*|
|-4-6-7-5-4-7-6-4-5-4-7-6-4--|------*|
|-4-6-7-----7-6-4-----7-6-4--|------*|

10. SHE'S LIKE HEROIN - Tabbed by bobbynogo
BOBBYNOGO takes no credit for this as he states he got it from another webstie.
Words and Music by Daron Malakian
Transcribed by CUBErt

Gtr I (Db Ab Db Gb Bb Eb) - 'Untitled'
Gtr II (Db Ab Db Gb Bb Eb) - 'Untitled'
Gtr III (Db Ab Db Gb Bb Eb) - 'Untitled'

   Intro
    Q=195
    N.C.
   4/4
    Gtr I
    PM--------------------------------------------------------------|
    q  E E E E E E   q  E E E E E E   q  E E E E E E   q  E E E E E E   4x
||-----------------|----------------|----------------|------------------||
||o----------------|----------------|----------------|-----------------o||
||-----7-5---------|----7-5---------|----5-4---------|----5-4-----------||
||---------6-5-6---|--------6-5-6---|--------5-4-5---|--------5-4-5-----||
||o-3------------0-|-3------------0-|-2------------0-|-2------------0--o||
||-----------------|----------------|----------------|------------------||


   Verse
    $
    C#5/G#                  G#
    Gtr II
     Q   E  E  E  E  E  E    Q   E  E  E  E  E  E
||------------------------|-----------------------|
||o-----------------------|-----------------------|
||------------------------|-----------------------|
||--11--11-11-11-11-11-11-|-10--10-10-10-10-10-10-|
||o-11--11-11-11-11-11-11-|-11--11-11-11-11-11-11-|
||------------------------|-----------------------|


  C5/G                    G
   Q   E  E  E  E  E  E    Q   E  E  E  E  E  E   4x
|-----------------------|-------------------------||
|-----------------------|------------------------o||
|-----------------------|-------------------------||
|-10--10-10-10-10-10-10-|--9---9--9--9--9--9--9---||
|-10--10-10-10-10-10-10-|-10--10-10-10-10-10-10--o||
|-----------------------|-------------------------||


   Chorus
                                                                     D.S.
      B5   A5 B5   C5 D5 C5 D5 C5 B5       B5   A5 B5   C5 D5 C5 D5 C5 B5
    Gtr I
      PM----------------------------|      PM----------------------------|
    E q  E q  q     E  E  E  E  E E q    E q  E q  q     E  E  E  E  E E q
||---------------|---------------------|--------------|-----------------------||
||o--------------|---------------------|--------------|----------------------o||
||---------------|---------------------|--------------|-----------------------||
||---------------|---------------------|--------------|-----------------------||
||o---9--9-7--9--|-10-12-10-12-10-9-9--|---9--9-7--9--|-10-12-10-12-10-9-9---o||
||----9--9-7--9--|-10-12-10-12-10-9-9--|---9--9-7--9--|-10-12-10-12-10-9-9----||


   Bridge
    N.C.
    PM--------------------------------------------------------------|
    q  E E E E E E   q  E E E E E E   q  E E E E E E   q  E E E E E E
||-----------------|----------------|----------------|------------------||
||o----------------|----------------|----------------|-----------------o||
||-----7-5---------|----7-5---------|----5-4---------|----5-4-----------||
||---------6-5-6---|--------6-5-6---|--------5-4-5---|--------5-4-5-----||
||o-3------------0-|-3------------0-|-2------------0-|-2------------0--o||
||-----------------|----------------|----------------|------------------||


    C5/G
    Gtr III
     E  E  E  E  E  E  E  E    E  E  E  E  E  E  E  E
||--------------------------|-------------------------|
||o-------------------------|-------------------------|
||--------------------------|-------------------------|
||--10-10-10-10-10-10-10-10-|-10-10-10-10-10-10-10-10-|
||o-10-10-10-10-10-10-10-10-|-10-10-10-10-10-10-10-10-|
||--------------------------|-------------------------|


  B5/F#
  E E E E E E E E   E E E E E E E E
|-----------------|-------------------||
|-----------------|------------------o||
|-----------------|-------------------||
|-9-9-9-9-9-9-9-9-|-9-9-9-9-9-9-9-9---||
|-9-9-9-9-9-9-9-9-|-9-9-9-9-9-9-9-9--o||
|-----------------|-------------------||


    C5/G
      E  E  E  E  E  E  E  E    E  E  E  E  E  E  E  E
||--/16-16-16-16-16-16-16-16-|-16-16-16-16-16-16-16-16-|
||o-/16-16-16-16-16-16-16-16-|-16-16-16-16-16-16-16-16-|
||---------------------------|-------------------------|
||---10-10-10-10-10-10-10-10-|-10-10-10-10-10-10-10-10-|
||o--10-10-10-10-10-10-10-10-|-10-10-10-10-10-10-10-10-|
||---------------------------|-------------------------|


  B5/F#
   E  E  E  E  E  E  E  E    E  E  E  E  E  E  E  E
|-15-15-15-15-15-15-15-15-|-15-15-15-15-15-15-15-15---||
|-15-15-15-15-15-15-15-15-|-15-15-15-15-15-15-15-15--o||
|-------------------------|---------------------------||
|--9--9--9--9--9--9--9--9-|--9--9--9--9--9--9--9--9---||
|--9--9--9--9--9--9--9--9-|--9--9--9--9--9--9--9--9--o||
|-------------------------|---------------------------||


   Chorus
    C5
    Gtr I
     Q   E  E  E  E  E  E    Q   E  E  E  E  E  E
||------------------------|-----------------------|
||o-----------------------|-----------------------|
||------------------------|-----------------------|
||--10--10-10-10-10-10-10-|-10--10-10-10-10-10-10-|
||o-10--10-10-10-10-10-10-|-10--10-10-10-10-10-10-|
||--10--10-10-10-10-10-10-|-10--10-10-10-10-10-10-|


  B5
  Q  E E E E E E   Q  E E E E E E
|----------------|-----------------|
|----------------|-----------------|
|----------------|-----------------|
|-9--9-9-9-9-9-9-|-9--9-9-9-9-9-9--|
|-9--9-9-9-9-9-9-|-9--9-9-9-9-9-9--|
|-9--9-9-9-9-9-9-|-9--9-9-9-9-9-9--|


  A5                                G5
  Q  E E E E E E   Q  E E E E E E   Q  E E E E E E   Q  E E E E E E
|----------------|----------------|----------------|-----------------||
|----------------|----------------|----------------|----------------o||
|----------------|----------------|----------------|-----------------||
|-7--7-7-7-7-7-7-|-7--7-7-7-7-7-7-|-5--5-5-5-5-5-5-|-5--5-5-5-5-5-5--||
|-7--7-7-7-7-7-7-|-7--7-7-7-7-7-7-|-5--5-5-5-5-5-5-|-5--5-5-5-5-5-5-o||
|-7--7-7-7-7-7-7-|-7--7-7-7-7-7-7-|-5--5-5-5-5-5-5-|-5--5-5-5-5-5-5--||


   Out-Chorus
    C5
     Q   E  E  E  E  E  E    Q   E  E  E  E  E  E
||------------------------|-----------------------|
||o-----------------------|-----------------------|
||------------------------|-----------------------|
||--10--10-10-10-10-10-10-|-10--10-10-10-10-10-10-|
||o-10--10-10-10-10-10-10-|-10--10-10-10-10-10-10-|
||--10--10-10-10-10-10-10-|-10--10-10-10-10-10-10-|
|
|   Gtr II
|    Q   Q     Q     Q       Q   Q     Q     Q
||--10--------10----------|-10--------10----------|
||o-----10----------10----|-----10----------10----|
||------------------------|-----------------------|
||------------------------|-----------------------|
||o-----------------------|-----------------------|
||------------------------|-----------------------|


  B5
   Q   E E  E E  E E    Q   E E  E E  E E
|--------------------|---------------------|
|--------------------|---------------------|
|--------------------|---------------------|
|--9---9-9--9-9--9-9-|--9---9-9--9-9--9-9--|
|--9---9-9--9-9--9-9-|--9---9-9--9-9--9-9--|
|--9---9-9--9-9--9-9-|--9---9-9--9-9--9-9--|
|
|  Q   Q    Q    Q      Q   Q    Q    Q
|-10-------10--------|-10-------10---------|
|-----10--------10---|-----10--------10----|
|--------------------|---------------------|
|--------------------|---------------------|
|--------------------|---------------------|
|--------------------|---------------------|


  A5
   Q   E E  E E  E E    Q   E E  E E  E E
|--------------------|--------------------|
|--------------------|--------------------|
|--------------------|--------------------|
|--7---7-7--7-7--7-7-|--7---7-7--7-7--7-7-|
|--7---7-7--7-7--7-7-|--7---7-7--7-7--7-7-|
|--7---7-7--7-7--7-7-|--7---7-7--7-7--7-7-|
|
|  Q   Q    Q    Q      Q   Q    Q    Q
|-10-------10--------|-10-------10--------|
|-----10--------10---|-----10--------10---|
|--------------------|--------------------|
|--------------------|--------------------|
|--------------------|--------------------|
|--------------------|--------------------|


  G5
   Q   E E  E E  E E    Q   E E  E E  E E
|--------------------|---------------------||
|--------------------|--------------------o||
|--------------------|---------------------||
|--5---5-5--5-5--5-5-|--5---5-5--5-5--5-5--||
|--5---5-5--5-5--5-5-|--5---5-5--5-5--5-5-o||
|--5---5-5--5-5--5-5-|--5---5-5--5-5--5-5--||
|
|  Q   Q    Q    Q      Q   Q    Q    Q
|-10-------10--------|-10-------10---------||
|-----10--------10---|-----10--------10---o||
|--------------------|---------------------||
|--------------------|---------------------||
|--------------------|--------------------o||
|--------------------|---------------------||


 Outro
                                                      H.=H
  N.C.
  Gtr II
   Q   Q   Q   Q     Q   Q   Q   Q     Q  Q   Q  Q    Q  Q  Q  Q
|-----------------|-----------------|---------------|-------------|
|-----------------|-----------------|---------------|-------------|
|-----------------|-----------------|---------------|-------------|
|-----------------|-----------------|---------------|-------------|
|-11------11------|-10------10------|-10-----10-----|-9-----9-----|
|-----10------10--|-----10------10--|-----9------9--|----9-----9--|


                                            Q=100
  N.C.
  Q  Q  Q  Q    Q  Q  Q  Q    Q  Q  Q  Q    Q   Q   Q  Q
|-------------|-------------|-------------|---------------*|
|-------------|-------------|-------------|---------------*|
|-------------|-------------|-------------|---------------*|
|-------------|-------------|-------------|---------------*|
|-9-----9-----|-7-----7-----|-7-----7-----|-5--(5)--5-----*|
|----7-----7--|----7-----7--|----5-----5--|-----5------5--*|

11. LONELY DAY - Tabbed by a Greatly Generous unregistered guy
Tuning = drop Db   C# g# c# f# a# d#

D#|-------------------------------------------------------------------------|
A#|------1-----------0------------1------------0----------------------------|
F#|----2---2-------2---2--------0---0--------1---1--------------------------|
C#|--2-------0---2-------2----2-------2----0-------0------------------------|
G#|0------------------------3-----------------------------------------------|
C#|------------3-------------------------2----------------------------------|


D#|-------------------------------------------------------------------------|
A#|-------------------------------------------------------------------------|
F#|-2--2-2-2--------------5--5-5-5------------------------------------------|
C#|-2--2-2-2---3--3-3-3---5--5-5-5---2--2-2-2-------------------------------|
G#|-0--0-0-0---3--3-3-3---3--3-3-3---2--2-2-2-------------------------------|
C#|------------3--3-3-3--------------2--2-2-2-------------------------------|


D#|-------------------------------------------------------------------------|
A#|------1-----------0------------1------------0----------------------------|
F#|----2---2-------2---2--------0---0--------1---1--------------------------|
C#|--2-------0---2-------2----2-------2----0-------0------------------------|
G#|0------------------------3-----------------------------------------------|
C#|------------3-------------------------2----------------------------------|


D#|--12----12--------------17-17-16v----------------------------------------|
A#|-----13----13-13/15------------------------------------------------------|
F#|-------------------------------------------------------------------------|
C#|-------------------------------------------------------------------------|
G#|-------------------------------------------------------------------------|
C#|-------------------------------------------------------------------------|


D#|-------------------------------------------------------------------------|
A#|-------------------------------------------------------------------------|
F#|-------------------------------------------------------------------------|
C#|-3--3-3-3---2--2-2-2---5--5-5-5---7--7-7-7-----x2------------------------|
G#|-3--3-3-3---2--2-2-2---5--5-5-5---7--7-7-7-------------------------------|
C#|-3--3-3-3---2--2-2-2---5--5-5-5---7--7-7-7-------------------------------|


D#|--------------------12---12-10-8--7--8--7----8--7---10-------------------|
A#|--------------------13---13-12-10-8--10-8----10-8-9-12-------------------|
F#|--------------------------------------------------9----------------------|
C#|3-x12--2-x12-------------------------------------------------------------|
G#|3------2-----------------------------------------------------------------|
C#|3------2-----------------------------------------------------------------|
  .pm    .pm

D#|-----------10------------12------------13------------15------------------|
A#|--13\12/13-12---13\12/13-13---13\12/13-15---13\12/13-17------------------|
F#|--14\13/14------14\13/14------14\13/14------14\13/14---------------------|
C#|-------------------------------------------------------------------------|
G#|-------------------------------------------------------------------------|
C#|-------------------------------------------------------------------------|


D#|--17-15-13-15-13-12-13-12-10-12-10-8-------------19--| incoherent doodling?
A#|--18-17-15-17-15-13-15-13-12-13-12-10--10v-------20--|
F#|-----------------------------------------------------|
C#|-----------------------------------------------------|
G#|-----------------------------------------------------|
C#|-----------------------------------------------------|


D#|-------------------------------------------------------------------------|
A#|-------------------------------------------------------------------------|
F#|-2--2-2-2--------------5--5-5-5------------------------------------------|
C#|-2--2-2-2---3--3-3-3---5--5-5-5---2--2-2-2-------------------------------|
G#|-0--0-0-0---3--3-3-3---3--3-3-3---2--2-2-2-------------------------------|
C#|------------3--3-3-3--------------2--2-2-2-------------------------------|


D#|-------------------------------------------------------------------------|
A#|------1-----------0------------1------------0----------------------------|
F#|----2---2-------2---2--------0---0--------1---1--------------------------|
C#|--2-------0---2-------2----2-------2----0-------0------------------------|
G#|0------------------------3-----------------------------------------------|
C#|------------3-------------------------2----------------------------------|


D#|-------------------------------------------------------------------------|
A#|-------------10----------------------------------------------------------|
F#|---10--9-----------------------------------------------------------------|
C#|-------------------------------------------------------------------------|
G#|-----7---7---------------------------------------------------------------|
C#|-------------------------------------------------------------------------|

Fourth tab

Chewablemoo

12. SOLDIER SIDE - Tabbed by Maitinin
Tuning: Db Ab Db Gb Bb Eb
        C# G# C# F# A# D#

Gtr I - Clean (lead, solo)
Gtr II - Overdriven (lead)
Gtr III - Clean (tremolo, left speaker)
Gtr IV - Clean (tremolo, right speaker)
Gtr V - Clean (solo)
Gtr VI - Distorted (backup in Chorus)

 Intro
 Q=75 bpm
 4/4
 Gtr I
   Gbm                                       Dbm
   S S  S S  S S  S S  S S  S S  S S  S S    S S  S S  S S  S S  S S  S S  S S  S S
|-----------------------------------------|-----------------------------------------|
|-----------------------------------------|-----------------------------------------|
|------12--------12--------12--------12---|------10--------10--------10--------10---|
|----0----0----0----0----0----0----0----0-|----0----0----0----0----0----0----0----0-|
|-13--------13--------13--------13--------|-12--------12--------12--------12--------|
|-----------------------------------------|-----------------------------------------|
|-Melancholy Riff


   Dbsus2                                Dbm
   S S S S  S S S S  S S S S  S S S S    S S  S S  S S  S S  S S  S S  S S  S S
|-------------------------------------|-----------------------------------------|
|-------------------------------------|-----------------------------------------|
|------9--------9--------9--------9---|------10--------10--------10--------10---|
|----0---0----0---0----0---0----0---0-|----0----0----0----0----0----0----0----0-|
|-12-------12-------12-------12-------|-12--------12--------12--------12--------|
|-------------------------------------|-----------------------------------------|
                                                            end Melancholy Riff-|


   Gbm                                        Dbm
   S S  S S  S  S S  S S  S S  S  S S  S S    S S  S S  S  S S  S S  S S  S  S S  S S
|------------------------------------------|------------------------------------------|
|------------------------------------------|------------------------------------------|
|------12------15--------15------14---12---|------10------12--------12------10--------|
|----0----0-------0----0----0-------0----0-|----0----0-------0----0----0-------0----0-|
|-13--------13------13--------13-----------|-12--------12------12--------12------12---|
|------------------------------------------|------------------------------------------|


   Dbsus2                                Dbm
   S S S S  S S S S  S S S S  S S S S    S S  S S  S S  S S  S S  S S  S S  S S
|-------------------------------------|-----------------------------------------|
|-------------------------------------|-----------------------------------------|
|------9--------9--------9--------9---|------10--------10--------10--------10---|
|----0---0----0---0----0---0----0---0-|----0----0----0----0----0----0----0----0-|
|-12-------12-------12-------12-------|-12--------12--------12--------12--------|
|-------------------------------------|-----------------------------------------|


 1st Verse
 Gtr II
    Gb5           E5  Eb5   Db5           A5   B5
    H.            E   E     H.            E    E
||------------------------|-------------------------||
||o-----------------------|------------------------o||
||------------------------|-2-----------------------||
||--5-------------3---2---|-0-------------8---10----||
||o-5-------------3---2---|-0-------------8---10---o||
||--5-------------3---2---|-0-------------8---10----||
...dead men lying on the bottom of the grave...

 Gtr II
    F#m7                                            E       B
    T T T T T T T T T T T T T T T T T T T T T T T T T T T T T T T T
||------------------------------------------------------------------|
||o-----------------------------------------------------------------|
||------------------------------------------------------------------|
||------------------------------------------------------------------|
||o-------------------------------------------------8-8-8-8-7-7-7-7-|
||--8-8-8-8-8-8-8-8-8-8-8-8-8-8-8-8-8-8-8-8-8-8-8-8-----------------|
|
|Gtr III
|    T  T  T  T  T  T  T  T  T  T  T  T  T  T  T  T  T  T  T  T  T  T  T  T  T  T  T  T  T T  T  T
||--13-13-13-13-13-13-13-13-13-13-13-13-13-13-13-13-13-13-13-13-13-13-13-13-17-17-17-17-15-15-15-15-|
||o-15-15-15-15-15-15-15-15-15-15-15-15-15-15-15-15-15-15-15-15-15-15-15-15-18-18-18-18-17-17-17-17-|
||--------------------------------------------------------------------------------------------------|
||--------------------------------------------------------------------------------------------------|
||o-------------------------------------------------------------------------------------------------|
||--------------------------------------------------------------------------------------------------|
|
|Gtr IV
|    T  T  T  T  T  T  T  T  T  T  T  T  T  T  T  T  T  T  T  T  T  T  T  T  T  T  T  T  T T  T  T
||--------------------------------------------------------------------------------------------------|
||o-11-11-11-11-11-11-11-11-11-11-11-11-11-11-11-11-11-11-11-11-11-11-11-11-18-18-18-18-17-17-17-17-|
||--12-12-12-12-12-12-12-12-12-12-12-12-12-12-12-12-12-12-12-12-12-12-12-12-17-17-17-17-17-17-17-17-|
||--------------------------------------------------------------------------------------------------|
||o-------------------------------------------------------------------------------------------------|
||--------------------------------------------------------------------------------------------------|


 Gtr II
  Db5
  T T T T T T T T T T T T T T T T T T T T T T T T T T T T T T T T
|------------------------------------------------------------------||
|-----------------------------------------------------------------o||
|------------------------------------------------------------------||
|------------------------------------------------------------------||
|-----------------------------------------------------------------o||
|-0-0-0-0-0-0-0-0-0-0-0-0-0-0-0-0-0-0-0-0-0-0-0-0-0-0-0-0-0-0-0-0--||
|
|Gtr III, IV
|  T  T  T  T  T  T  T  T  T  T  T  T  T  T  T  T  T  T  T  T  T  T  T  T  T  T  T  T  T 
T  T  T
|--------------------------------------------------------------------------------------------------||
|-15-15-15-15-15-15-15-15-15-15-15-15-15-15-15-15-15-15-15-15-15-15-15-15-15-15-15-15-15-15-15-15-o||
|-14-14-14-14-14-14-14-14-14-14-14-14-14-14-14-14-14-14-14-14-14-14-14-14-14-14-14-14-14-14-14-14--||
|--------------------------------------------------------------------------------------------------||
|-------------------------------------------------------------------------------------------------o||
|--------------------------------------------------------------------------------------------------||


 Bridge
w/Melancholy Riff x2
 Gtr III, IV (Gtr III plays the e-string notes)
     T  T  T  T  T  T  T  T  T  T  T  T  T  T  T  T  T  T  T  T  T  T  T  T  T  T  T  T  T T  T  T
||--18-18-18-18-18-18-18-18-18-18-18-18-18-18-18-18-18-18-18-18-18-18-18-18-18-18-18-18-18-18-18-18-|
||o-20-20-20-20-20-20-20-20-20-20-20-20-20-20-20-20-20-20-20-20-20-20-20-20-20-20-20-20-20-20-20-20-|
||--------------------------------------------------------------------------------------------------|
||--------------------------------------------------------------------------------------------------|
||o-------------------------------------------------------------------------------------------------|
||--------------------------------------------------------------------------------------------------|
...they were crying when their sons left...


   T  T  T  T  T  T  T  T  T  T  T  T  T  T  T  T  T  T  T  T  T  T  T  T  T  T  T  T  T 
T  T  T
|-17-17-17-17-17-17-17-17-17-17-17-17-17-17-17-17-17-17-17-17-17-17-17-17-17-17-17-17-17-17-17-17-|
|-18-18-18-18-18-18-18-18-18-18-18-18-18-18-18-18-18-18-18-18-18-18-18-18-18-18-18-18-18-18-18-18-|
|-------------------------------------------------------------------------------------------------|
|-------------------------------------------------------------------------------------------------|
|-------------------------------------------------------------------------------------------------|
|-------------------------------------------------------------------------------------------------|


   T  T  T  T  T  T  T  T  T  T  T  T  T  T  T  T  T  T  T  T  T  T  T  T  T  T  T  T  T 
T  T  T
|-15-15-15-15-15-15-15-15-15-15-15-15-15-15-15-15-15-15-15-15-15-15-15-15-15-15-15-15-15-15-15-15-|
|-17-17-17-17-17-17-17-17-17-17-17-17-17-17-17-17-17-17-17-17-17-17-17-17-17-17-17-17-17-17-17-17-|
|-------------------------------------------------------------------------------------------------|
|-------------------------------------------------------------------------------------------------|
|-------------------------------------------------------------------------------------------------|
|-------------------------------------------------------------------------------------------------|


   T  T  T  T  T  T  T  T  T  T  T  T  T  T  T  T  T  T  T  T  T  T  T  T  T  T  T  T  T 
T  T  T
|-17-17-17-17-17-17-17-17-17-17-17-17-17-17-17-17-17-17-17-17-17-17-17-17-17-17-17-17-17-17-17-17--||
|-18-18-18-18-18-18-18-18-18-18-18-18-18-18-18-18-18-18-18-18-18-18-18-18-18-18-18-18-18-18-18-18-o||
|--------------------------------------------------------------------------------------------------||
|--------------------------------------------------------------------------------------------------||
|-------------------------------------------------------------------------------------------------o||
|--------------------------------------------------------------------------------------------------||


 2nd Verse
similar to 1st Verse


 Bridge
similar to previous


 Solo
 Gtr II
  Gb5         E5 Eb5  Db5               Ab5               Db5 Eb5 E5  Eb5
  Q   Q   Q   E  E    Q   Q   Q   Q     Q   Q   Q   Q     Q   Q   Q   Q
|-------------------|-----------------|-----------------|-----------------|
|-------------------|-----------------|-----------------|-----------------|
|-------------------|-----------------|-----------------|-----------------|
|-5---5---5---3--2--|-0---0---0---0---|-7---7---7---7---|-0---2---3---2---|
|-5---5---5---3--2--|-0---0---0---0---|-7---7---7---7---|-0---2---3---2---|
|-5---5---5---3--2--|-0---0---0---0---|-7---7---7---7---|-0---2---3---2---|
|-Solo Backup Riff                                   end Solo Backup Riff-|


 Gtr I
   T  T  T  T  T  T  T  T  T  T  T  T  T  T  T  T  T  T  T  T  T  T  T  T  T  T  T  T  T 
T  T  T
|-------------------------------------------------------------------------------------------------|
|-------------------------------------------------------------------------------------------------|
|-12-12-12-12-12-12-12-12-12-12-12-12-10-10-12-12-14-14-14-14-12-12-10-10-12-12-12-12-10-10-12-12-|
|-------------------------------------------------------------------------------------------------|
|-------------------------------------------------------------------------------------------------|
|-------------------------------------------------------------------------------------------------|
|-Guitar Solo
|
|Gtr V
|  T  T  T  T  T  T  T  T  T  T  T  T  T  T  T  T  T  T  T  T  T  T  T  T  T  T  T  T  T 
T  T  T
|-------------------------------------------------------------------------------------------------|
|-11-11-11-11-11-11-11-11-11-11-11-11-10-10-11-11-13-13-13-13-11-11-10-10-11-11-11-11-10-10-11-11-|
|-------------------------------------------------------------------------------------------------|
|-------------------------------------------------------------------------------------------------|
|-------------------------------------------------------------------------------------------------|
|-------------------------------------------------------------------------------------------------|
|-Guitar Solo


   T  T  T  T  T  T  T  T  T  T  T  T  T  T  T  T  T  T  T  T  T  T  T  T  T  T  T  T T T T  T
|-----------------------------------------------------------------------------------------------|
|-----------------------------------------------------------------------------------------------|
|-10-10-10-10-------------------------10-10-12-12-10-10-10-10-------------------------9-9-10-10-|
|-------------12-12-12-12-12-12-12-12-------------------------12-12-12-12-12-12-12-12-----------|
|-----------------------------------------------------------------------------------------------|
|-----------------------------------------------------------------------------------------------|
|
|  T  T  T  T  T  T  T  T  T  T  T  T  T  T  T  T  T  T  T  T  T  T  T  T  T  T  T  T T T T  T
|-----------------------------------------------------------------------------------------------|
|-10-10-10-10-------------------------10-10-11-11-10-10-10-10-------------------------8-8-10-10-|
|-------------10-10-10-10-10-10-10-10-------------------------10-10-10-10-10-10-10-10-----------|
|-----------------------------------------------------------------------------------------------|
|-----------------------------------------------------------------------------------------------|
|-----------------------------------------------------------------------------------------------|


  T T T T  T  T  T  T  T  T  T  T T T  T  T T T T T  T  T  T  T  T  T  T  T T T  T  T
|-------------------------------------------------------------------------------------|
|-------------------------------------------------------------------------------------|
|-9-9-9-9-------------------------9-9-10-10-9-9-9-9-----------------------------------|
|---------11-11-11-11-11-11-11-11-------------------11-11-11-11-12-12-11-11-9-9-11-11-|
|-------------------------------------------------------------------------------------|
|-------------------------------------------------------------------------------------|
|
| T T T T  T  T  T  T  T  T  T  T T T  T  T T T T T  T  T  T  T  T  T  T  T T T  T  T
|-------------------------------------------------------------------------------------|
|-8-8-8-8-------------------------8-8-10-10-8-8-8-8-----------------------------------|
|-------------------------------------------------------------------------------------|
|---------11-11-11-11-11-11-11-11-------------------11-11-11-11-12-12-11-11-9-9-11-11-|
|-------------------------------------------------------------------------------------|
|-------------------------------------------------------------------------------------|


 Gtr I, V
   T  T  T  T  T  T  T  T T T T T T T T T  T  T  T  T  T  T  T  T  T  T  T  T  T  T  T  T
|-----------------------------------------------------------------------------------------|
|-----------------------------------------------------------------------------------------|
|-------------------------9-9-9-9-9-9-9-9-10-10-10-10-10-10-10-10-12-12-12-12-12-12-12-12-|
|-12-12-12-12-12-12-12-12-----------------------------------------------------------------|
|-----------------------------------------------------------------------------------------|
|-----------------------------------------------------------------------------------------|
                                                                          end Guitar Solo-|

w/Solo Backup Riff + Guitar Solo
 Gtr III
   T  T  T  T  T  T  T  T  T  T  T  T  T  T  T  T  T  T  T  T  T  T  T  T  T  T  T  T  T 
T  T  T
|-13-13-13-13-13-13-13-13-13-13-13-13-12-12-13-13-17-17-17-17-17-17-17-17-15-15-15-15-13-13-15-15-|
|-------------------------------------------------------------------------------------------------|
|-------------------------------------------------------------------------------------------------|
|-------------------------------------------------------------------------------------------------|
|-------------------------------------------------------------------------------------------------|
|-------------------------------------------------------------------------------------------------|
|
|Gtr IV
|  T  T  T  T  T  T  T  T  T  T  T  T  T  T  T  T  T  T  T  T  T  T  T  T  T  T  T  T  T 
T  T  T
|-------------------------------------------------17-17-17-17-20-20-20-20-20-20-20-20-17-17-18-18-|
|-15-15-15-15-15-15-15-15-15-15-15-15-15-15-15-15-------------------------------------------------|
|-------------------------------------------------------------------------------------------------|
|-------------------------------------------------------------------------------------------------|
|-------------------------------------------------------------------------------------------------|
|-------------------------------------------------------------------------------------------------|


   T  T  T  T  T  T  T  T  T  T  T  T  T  T  T  T  T  T  T  T  T  T  T  T  T  T  T  T  T 
T  T  T
|-13-13-13-13-------------------------13-13-15-15-13-13-13-13-------------------------12-12-13-13-|
|-------------15-15-15-15-15-15-15-15-------------------------15-15-15-15-15-15-15-15-------------|
|-------------------------------------------------------------------------------------------------|
|-------------------------------------------------------------------------------------------------|
|-------------------------------------------------------------------------------------------------|
|-------------------------------------------------------------------------------------------------|
|
|  T  T  T  T  T  T  T  T  T  T  T  T  T  T  T  T  T  T  T  T  T  T  T  T  T  T  T  T  T 
T  T  T
|-17-17-17-17-13-13-13-13-13-13-13-13-17-17-18-18-17-17-17-17-13-13-13-13-13-13-13-13-13-13-13-13-|
|-------------------------------------------------------------------------------------------------|
|-------------------------------------------------------------------------------------------------|
|-------------------------------------------------------------------------------------------------|
|-------------------------------------------------------------------------------------------------|
|-------------------------------------------------------------------------------------------------|


   T  T  T  T  T  T  T  T  T  T  T  T  T  T  T  T  T  T  T  T  T  T  T  T  T  T  T  T  T 
T  T  T
|-12-12-12-12-12-12-12-12-12-12-12-12-12-12-12-12-13-13-13-13-13-13-13-13-15-15-15-15-15-15-15-15-|
|-------------------------------------------------------------------------------------------------|
|-------------------------------------------------------------------------------------------------|
|-------------------------------------------------------------------------------------------------|
|-------------------------------------------------------------------------------------------------|
|-------------------------------------------------------------------------------------------------|
|
|  T  T  T  T  T  T  T  T  T  T  T  T  T  T  T  T  T  T  T  T  T  T  T  T  T  T  T  T  T 
T  T  T
|-------------------------------------------------------------------------------------------------|
|-14-14-14-14-14-14-14-14-14-14-14-14-14-14-14-14-15-15-15-15-15-15-15-15-17-17-17-17-17-17-17-17-|
|-------------------------------------------------------------------------------------------------|
|-------------------------------------------------------------------------------------------------|
|-------------------------------------------------------------------------------------------------|
|-------------------------------------------------------------------------------------------------|


   T  T  T  T  T  T  T  T  T  T  T  T  T  T  T  T  T  T  T  T  T  T  T  T  T  T  T  T  T 
T  T  T
|-13-13-13-13-13-13-13-13-15-15-15-15-15-15-15-15-17-17-17-17-17-17-17-17-15-15-15-15-15-15-15-15-|
|-------------------------------------------------------------------------------------------------|
|-------------------------------------------------------------------------------------------------|
|-------------------------------------------------------------------------------------------------|
|-------------------------------------------------------------------------------------------------|
|-------------------------------------------------------------------------------------------------|
|
|  T  T  T  T  T  T  T  T  T  T  T  T  T  T  T  T  T  T  T  T  T  T  T  T  T  T  T  T  T 
T  T  T
|-------------------------------------------------------------------------------------------------|
|-15-15-15-15-15-15-15-15-17-17-17-17-17-17-17-17-18-18-18-18-18-18-18-18-17-17-17-17-17-17-17-17-|
|-------------------------------------------------------------------------------------------------|
|-------------------------------------------------------------------------------------------------|
|-------------------------------------------------------------------------------------------------|
|-------------------------------------------------------------------------------------------------|


 Chorus
 Gtr II, VI
  E5      Eb5       Gb5     Db5       Eb5                   Ab5
  Q   Q   Q   Q     Q   Q   Q   Q     Q   Q    Q    Q       Q   Q   Q   Q
|-----------------|-----------------|--------------------|------------------|
|-----------------|-----------------|--------------------|------------------|
|-----------------|-----------------|--------------------|------------------|
|-3---3---2---2---|-5---5---0---0---|-2---2----2----2----|--7---7---7---7---|
|-3---3---2---2---|-5---5---0---0---|-2---2----2----2----|--7---7---7---7---|
|-3---3---2---2---|-5---5---0---0---|-2---2----2----2----|--7---7---7---7---|
|-Chorus Riff                                               end Chorus Riff-|
|
|Gtr IV
| W                 W                 H       E  E  E  E    H
|-----------------|-----------------|--------17-15----15-|------------------|
|-----------------|-----------------|--------------18----|-17---------------|
|-----------------|-----------------|--------------------|------------------|
|-----------------|-----------------|--------------------|------------------|
|-----------------|-----------------|--------------------|------------------|
|-----------------|-----------------|--------------------|------------------|
...welcome to the soldier side...

w/Chorus Riff x3
 Gtr III, IV (both guitars play this)
     T  T  T  T  T  T  T  T  T  T  T  T  T  T  T  T  T  T  T  T  T  T  T  T  T  T  T  T  T T  T  T
||--17-17-17-17-17-17-17-17-17-17-17-17-17-17-17-17-16-16-16-16-16-16-16-16-16-16-16-16-16-16-16-16-|
||o-18-18-18-18-18-18-18-18-18-18-18-18-18-18-18-18-17-17-17-17-17-17-17-17-17-17-17-17-17-17-17-17-|
||--------------------------------------------------------------------------------------------------|
||--------------------------------------------------------------------------------------------------|
||o-------------------------------------------------------------------------------------------------|
||--------------------------------------------------------------------------------------------------|


   T  T  T  T  T  T  T  T  T  T  T  T  T  T  T  T  T  T  T  T  T  T  T  T  T  T  T  T  T 
T  T  T
|-18-18-18-18-18-18-18-18-18-18-18-18-18-18-18-18-17-17-17-17-17-17-17-17-17-17-17-17-17-17-17-17-|
|-20-20-20-20-20-20-20-20-20-20-20-20-20-20-20-20-18-18-18-18-18-18-18-18-18-18-18-18-18-18-18-18-|
|-------------------------------------------------------------------------------------------------|
|-------------------------------------------------------------------------------------------------|
|-------------------------------------------------------------------------------------------------|
|-------------------------------------------------------------------------------------------------|


 Gtr III
   T  T  T  T  T  T  T  T  T  T  T  T  T  T  T  T  T  T  T  T  T  T  T  T  T  T  T  T  T 
T  T  T
|-16-16-16-16-16-16-16-16-16-16-16-16-16-16-16-16-16-16-16-16-16-16-16-16-16-16-16-16-16-16-16-16-|
|-17-17-17-17-17-17-17-17-17-17-17-17-17-17-17-17-17-17-17-17-17-17-17-17-17-17-17-17-17-17-17-17-|
|-------------------------------------------------------------------------------------------------|
|-------------------------------------------------------------------------------------------------|
|-------------------------------------------------------------------------------------------------|
|-------------------------------------------------------------------------------------------------|
|
|Gtr IV
|  T  T  T  T  T  T  T  T  T  T  T  T  T  T  T  T  E           E           E           E
|-16-16-16-16-16-16-16-16-16-16-16-16-16-16-16-16-17----------15----------------------15----------|
|-17-17-17-17-17-17-17-17-17-17-17-17-17-17-17-17-------------------------18----------------------|
|-------------------------------------------------------------------------------------------------|
|-------------------------------------------------------------------------------------------------|
|-------------------------------------------------------------------------------------------------|
|-------------------------------------------------------------------------------------------------|


   T  T  T  T  T  T  T  T  T  T  T  T  T  T  T  T  T  T  T  T  T  T  T  T  T  T  T  T  T 
T  T  T  3x
|-17-17-17-17-17-17-17-17-17-17-17-17-17-17-17-17-17-17-17-17-17-17-17-17-17-17-17-17-17-17-17-17--||
|-17-17-17-17-17-17-17-17-17-17-17-17-17-17-17-17-17-17-17-17-17-17-17-17-17-17-17-17-17-17-17-17-o||
|--------------------------------------------------------------------------------------------------||
|--------------------------------------------------------------------------------------------------||
|-------------------------------------------------------------------------------------------------o||
|--------------------------------------------------------------------------------------------------||
|
|  T  T  T  T  T  T  T  T  T  T  T  T  T  T  T  T  T  T  T  T  T  T  T  T  T  T  T  T  T 
T  T  T  3x
|--------------------------------------------------------------------------------------------------||
|-17-17-17-17-17-17-17-17-17-17-17-17-17-17-17-17-17-17-17-17-17-17-17-17-17-17-17-17-17-17-17-17-o||
|-18-18-18-18-18-18-18-18-18-18-18-18-18-18-18-18-18-18-18-18-18-18-18-18-18-18-18-18-18-18-18-18--||
|--------------------------------------------------------------------------------------------------||
|-------------------------------------------------------------------------------------------------o||
|--------------------------------------------------------------------------------------------------||


 Outro
 Gtr I
                                                                    |--3--|
  a a a  E   E    S  S  E   a a a E   E   E   S  S    E    S  S  a  E  E  E  E   E    E  
E
|--------------------------------------------------|------------------------------------------|
|-------10-------10-11-10---------9-------9--------|------11s13-13s15s13s11-10-------10-------|
|-----x-------------------------x------------------|------12s14-14s15s14s12-------------------|
|---x-------------------------x--------------------|------------------------------------------|
|-8----------8--------------7---------7-------7s10-|-10--------------------------8--------8---|
|--------------------------------------------------|------------------------------------------|


                                        (slow down here)
  a a a E   E   E   E   E   E   E   E     E   E   E   E    H
|---------------------------------------|----------------------------------|
|-------9-------9---------------9-------|-----------------10---------------|
|-----9-----------------9---------------|---------9------------------------|
|---x-----------------------------------|-----7-------7--------------------|
|-7---------7-------7-------7-------7---|-7--------------------------------|
|---------------------------------------|-7--------------------------------|
comments
We did not receive enough feedback on this tab! Please rate:
print report bad tab
1 2 3 4 5
5 comments total. Showing first comments.
0 reply
Maitinin wrote on May 15 2007, 10:41 am

great tab buddy, ( hehe, I'm wouldn't be in authority to say as I did 4 of them I know :P ) ...GREAT you credited the real tabbers!
...the Lonely Day Solo however is complete crap, I did a good on of it, by the way, feel free to copy that!

0 reply
systematication wrote on May 15 2007, 09:18 pm

Yeah you did a really great job with the system tabs. My band plays a lot of system stuff so we resort to your tabs alot. Thanks for the comment.

0 reply
zacky.v wrote on May 15 2007, 10:05 pm

kill rock;n rolls verse is off.you rock maitinin.

I want to post or [tab]
guest
You may want to rate the tab now too:
select rating
Please do not post tabs as comments. Select "correction" instead!