Oops, an error
Loading. Please wait.

Lonely Day Tab

ver2
29,474 views 29 this week
2 commentsread comments
1 2 3 4 5
worth learning
x 8
Autoscroll
+/-
esc
set tempo
stop
Contributor
Difficulty
Tuning
novice
C# G# C# F# A# D#
WARNING: You are trying to view
                                    content from Ultimate-Guitar.com
                                    in an unauthorized application,
                                    which is prohibited.

                                    Please use an official Ultimate
                                    Guitar Tabs application for iPhone,
                                    iPad or Android to access legitimate
                                    chords, guitar, bass, and drum tabs
                                    from Ultimate-Guitar.com database.

                                    Type "ultimate guitar tabs" in Apple
                                    App Store's or Android Market's
                                    search to find the application.
Lonely Day
System of a Down
Hypnotized

READ THIS!!!!!!!!!!!!!!!!!!!!!!!!!!
OK so what i have here are tabs for lonely day vocals on guitar. I saw this song played 
piano were they played vocals part so i Decided to get the notes and change them to 
This is pretty cool so hope you enjoy it.

TUNING C#-D#-C#-F#-A#-B#

E - 1/8 NOTE
Q - 1/4 NOTE
H - 1/2 NOTE
a . NEXT TO A NOTE MEANS THAT NOTE IS DOTTED ADD HALF OF ITS VALUE
(EXAMPLE H. IS 3 BEATS)


READ TOP!!!!!!!!!!READ BEFORE YOU RATE OR COMMENT

Such a lonely day   And it's mine  The most loneliest day of my  liiiiiiife
 E   E  E E   H     E   E    H     E   E    E  E  E   E   E  E   H   E  E H.
-9---6--9-6---8-----6---6----------6---6----6--8--9---11--9--8---9---11-9-8-|
-----------------------------6----------------------------------------------|
---------------DONT FORGET TO READ TOP--------------------------------------|
----------------------------------------------------------------------------|
----------------------------------------------------------------------------|
----------------------------------------------------------------------------|

Such a lonely day   Should be banned  It's a day that I  can't staaaaaand
 E   E  E E   H     E      E  H       E    E Q   E    Q  E E E H  E E E H
-9---6--9-6---8-----6------6----------6----6-11--9----11-8-9-8-6--9-8-6-3-|
------------------------------6-------------------------------------------|
--------------------------------------------------------------------------|
--------------------------------------------------------------------------|
--------------------------------------------------------------------------|
--------------------------------------------------------------------------|


The most loneliest day of my liiiiiife
  E  E    E  E  E   E   E  E  H  E  E H.
------------------------------------------|
o-6--6----6--8--9---10--9--8--6--10-9-8---|o
------------------------------------------|
------------------------------------------|
------------------------------------------|
o-----------------------------------------|o
------------------------------------------|

Such a lonely day  Shouldn't exist   It's a day that I'll never miiiiiiiiss
 E   E  E E   H     E  E.    h       E    E Q   E    Q    E E E E H E E E H
-9---6--9-6---8-----6--6-------------6----6-11--9----11---9-8-9-8-6-9-8-6-3-|
-----------------------------6h7p6------------------------------------------|
----------------------------------------------------------------------------|
----------------------------------------------------------------------------|
----------------------------------------------------------------------------|
----------------------------------------------------------------------------|

Such a lonely day   And it's mine  The most loneliest day of my  liiiiiiife
 E   E  E E   H     E   E    H     E   E    E  E  E   E   E  E   H   E  E H.
-9---6--9-6---8-----6---6----------6---6----6--8--9---11--9--8---9---11-9-8-|
-----------------------------6----------------------------------------------|
----------------------------------------------------------------------------|
----------------------------------------------------------------------------|
----------------------------------------------------------------------------|
----------------------------------------------------------------------------|

And if you go,  I wanna go with you   And if you die,  I wanna die with you
 E  E  E   H    E  E E  E  E    H     E   E  E   H     E  E E  E   E    H
----------------------------------------------------------------------------|
-6--6--6---4----4--4-4--6--4----2-----6---6--6---4-----4--4-4--6---7----6---|
----------------------------------------------------------------------------|
----------------------------------------------------------------------------|
----------------------------------------------------------------------------|
----------------------------------------------------------------------------|

Take your hand and walk away
 H.  Q.   Q.   Q   Q.   Q.H.
------------------------------|
-6---6----4----4---7----7-6---|
------------------------------|
------------------------------|
------------------------------|
------------------------------|

<solo>

The most loneliest day of my liiiiiife
  E  E    E  E  E   E   E  E  H  E  E H.
------------------------------------------|
o-6--6----6--8--9---10--9--8--6--10-9-8---|o
------------------------------------------|
------------------------------------------|
------------------------------------------|
o-----------------------------------------|o

The most loneliest day of my  liiiiiiiife
  E  E    E  E  E   E   E  E  H  E  E E E
--6--6----6--8--9---10--9--8--6--10-9-8-9-|
------------------------------------------|
------------------------------------------|
------------------------------------------|
------------------------------------------|
------------------------------------------|

slide on STRINGS back and forth matching the humming

Such a lonely day   And it's mine  It's a day that I am glad I surviiiiived.
 E   E  E E   H     E   E    H     E    E Q   E    E Q   E   E E E H E E E H
-9---6--9-6---8-----6---6----------6----6-11--9----9-11--9---8-9-8-6-9-8-6-3-|
-----------------------------6-----------------------------------------------|
-----------------------------------------------------------------------------|
-----------------------------------------------------------------------------|
-----------------------------------------------------------------------------|
-----------------------------------------------------------------------------|


HOPE YOU ENJOY ANY QUESTIONS OR IMPROVEMENTS OR CORRECTIONS EMAIL ME
JORGEM1398@YAHOO.COM
comments
print report bad tab
2 comments total.
0 reply
jorgem1398 wrote on June 29 2009, 10:31 pm

please note this are NOT TABS FOR THE SONG but for the vocals played on guitar so make sure you know that before ratting and please rate

0 reply
SCMETAL98 wrote on February 23 2013, 01:31 pm

just for your information B# doesn't exist it will be C

I want to post or [tab]
guest
You may want to rate the tab now too:
select rating
Please do not post tabs as comments. Select "correction" instead!