Oops, an error
Loading. Please wait.

Mezmerize Tab

ver1
ver1

Album

More versions @911Tabs.com
54,232 views 55 this week
35 commentsread comments
1 2 3 4 5
accurate
x 52
add to favorites launch autoscroll
font size
0
reset
Autoscroll
+/-
esc
set tempo
stop
Contributor
WARNING: You are trying to view
                                    content from Ultimate-Guitar.com
                                    in an unauthorized application,
                                    which is prohibited.

                                    Please use an official Ultimate
                                    Guitar Tabs application for iPhone,
                                    iPad or Android to access legitimate
                                    chords, guitar, bass, and drum tabs
                                    from Ultimate-Guitar.com database.

                                    Type "ultimate guitar tabs" in Apple
                                    App Store's or Android Market's
                                    search to find the application.
Band- System Of A Down
Album- Mezmerize

Track Listings:
1.Soldier Side
2.B.Y.O.B.
3.Revenga
4.Cigaro
5.Radio/Video
6.This Cocaine Makes Me Feel Like I'm On This Song
7.Violent Pornography
8.Question!
9.Sad Statue
10.Old School Hollywood
11.Lost In Hollywood

----------------------------------------------------

1.Soldier Side

Intro (0:00 - 0:14) Clean
D|--------------------------------------------------------------------------------------|
A|-----------------------------------------------------------------------3---3-4-4/6-6--|
F|----3---3-4-3----2---2-----4-6-6/8\6-4-3---3------2---2-------2-----------------------|
C|---1------------3--------------------------------3--------3----------3---3------------|
G|--1------------3--------------------------------3------------------1------------------|
C|-1----4-------3----3---3/6---------------1---1-3----3---3---3---3---------------------|

Verse (0:14 - 0:44) Clean
D|------------------------------------------------------------------|
A|-------------------------------------------------3---3-4-4/6-6----|
F|-----3-----2------4-----3------2-------2-----------3--------------|
C|--------------------------1--------3-----------3------------------| x2
G|---------------------------------------------1--------------------|
C|-1-4---4-3----3-6---6\1------3---3---3----3--------------------1--|

Ending (0:45 - 0:59) Clean
D|---------------------------------------------------------------|
A|---11---11-12-11-------10---10------12-14-14/16\14-12--11---11-|
F|--8------------------10----------------------------------------|
C|-8-----------------10------------------------------------------|
G|------9-------------------8----8/11-----------------------9----|
C|---------------------------------------------------------------|

D|----------------------------------------|
A|-------10---10--------10----------------|
F|-----10----------10------------10----11~|
C|---10------------------------8-----8----|
G|9-8-------8----8----8----8--------------|
C|---------------------------8------------|

--------------------------------------------------------------

2.B.Y.O.B.

Intro
  Q=155
  N.C.
 4/4
  Gtr I
  S S S S S S S S S S S S S S S S     S S S S S S S S S S S S S S S S
|---------------------------------||------------------------------------||
|---------------------------------||o----------------------------------o||
|---------------------------------||------------------------------------||
|-7p0-0-0-0-0-0-0-7p0-0-8p0-0-7p0-||--7p0-0-0-0-0-0-0-7p0-0-8p0-0-7p0---||
|---------------------------------||o----------------------------------o||
|---------------------------------||------------------------------------||


  S S S S S S S S S S S S S S S S     S S S S S S S S S S S S S S S S
|---------------------------------||-----------------------------------||
|---------------------------------||o---------------------------------o||
|---------------------------------||-----------------------------------||
|-7p0-0-8p0-0-7p0-7p0-0-8p0-0-7p0-||--7p0-0-8p0-0-7p0-7p0-0-8p0-0-7p0--||
|---------------------------------||o---------------------------------o||
|---------------------------------||-----------------------------------||


  N.C.                                              E5 F5  G5
  S S S S S S S S S S S S S S S S   S S S S S S S S E.  E.  E
|---------------------------------|----------------------------|
|---------------------------------|----------------------------|
|---------------------------------|----------------------------|
|---------------------------------|-----------------9--10--12--|
|---------------------------------|-----------------7---8--10--|
|-0-0-0-8-0-0-7-8-0-0-0-8-0-0-7-8-|-0-0-0-8-0-0-7-8------------|


  N.C.                                              G5  F5  E5
  S S S S S S S S S S S S S S S S   S S S S S S S S  E.  E. E
|---------------------------------|----------------------------|
|---------------------------------|----------------------------|
|---------------------------------|----------------------------|
|---------------------------------|-----------------12--10--9--|
|---------------------------------|-----------------10---8--7--|
|-0-0-0-8-0-0-7-8-0-0-0-8-0-0-7-8-|-0-0-0-8-0-0-7-8------------|


  N.C.                                              E5 F5  G5
  S S S S S S S S S S S S S S S S   S S S S S S S S E.  E.  E
|---------------------------------|----------------------------|
|---------------------------------|----------------------------|
|---------------------------------|----------------------------|
|---------------------------------|-----------------9--10--12--|
|---------------------------------|-----------------7---8--10--|
|-0-0-0-8-0-0-7-8-0-0-0-8-0-0-7-8-|-0-0-0-8-0-0-7-8------------|


  N.C.                                              G5  F5  E5  N.C.
  S S S S S S S S S S S S S S S S   S S S S S S S S  E.  E. E   W
|---------------------------------|---------------------------|------|
|---------------------------------|---------------------------|------|
|---------------------------------|---------------------------|------|
|---------------------------------|-----------------12--10--9-|------|
|---------------------------------|-----------------10---8--7-|------|
|-0-0-0-8-0-0-7-8-0-0-0-8-0-0-7-8-|-0-0-0-8-0-0-7-8-----------|------|


   Verse
    Slower Q=105
    N.C.                                  F5
    PM------------------------------------|
    |-------3-------| |-------3-----------|
    S S S S S S S S S S S S S S S S S S e  E
||-------------------------------------------|
||o------------------------------------------|
||-------------------------------------------|
||----------------------------------------10-|
||o----------------------------------------8-|
||--7-0-0-8-0-0-7-0-0-8-0-0-7-0-0-8-0-0-7----|


  N.C.                    G5  F5 E5
  PM--------------------|
  |----------3----------|
  S S S S S S S S S S S S  Q   E E
|------------------------------------||
|-----------------------------------o||
|------------------------------------||
|-------------------------12--10-9---||
|-------------------------10---8-7--o||
|-7-0-0-8-0-0-7-0-0-8-0-0------------||


  N.C.
  PM------------------------------------------------|
  |----------3----------| |----------3--------------|
  S S S S S S S S S S S S S S S S S S S S S S S S
|-------------------------------------------------|
|-------------------------------------------------|
|-------------------------------------------------|
|-------------------------------------------------|
|-------------------------------------------------|
|-7-0-0-8-0-0-7-0-0-8-0-0-7-0-0-8-0-0-7-0-0-8-0-0-|


                                        F5
 ---------------------------------------|
  |--------3--------| |------3----------|
  S S S S S S S S S S S S S S S S S S e  E
|--------------------------------------------|
|--------------------------------------------|
|--------------------------------------------|
|---------------------------------------10---|
|----------------------------------------8---|
|-7-0-0-8-0-0-7-0-0-8-0-0-7-0-0-8-0-0-7------|


  N.C.
  PM------------------------------------------------|
  |---------3---------| |-----------3---------------|
  S S S S S S S S S S S S S S S S S S S S S S S S
|-------------------------------------------------|
|-------------------------------------------------|
|-------------------------------------------------|
|-------------------------------------------------|
|-------------------------------------------------|
|-7-0-0-8-0-0-7-0-0-8-0-0-7-0-0-8-0-0-7-0-0-8-0-0-|


                          G5 F5 E5
 -----------------------|       PM
  |----------3----------|
  S S S S S S S S S S S S Q  E. S
|---------------------------------|
|---------------------------------|
|---------------------------------|
|---------------------------------|
|-------------------------5--3--2-|
|-7-0-0-8-0-0-7-0-0-8-0-0-5--3--2-|


 Pre-Chorus
  F5E5D5      E5F5G5F5E5D5  E5D5C5    N.C.
  PM|       PM----------------|       PM--|
  S S q  e. S S S S S S S   S S q  e. S S S S S E
|-------------------------|-----------------------|
|-------------------------|-----------------------|
|-------------------------|-----------------------|
|-------------------------|-----5--5--------3p2-0-|
|-3-2-0--0--0-2-3-5-3-2-0-|-2-0-3--3--0-3-5-------|
|-3-2-0--0--0-2-3-5-3-2-0-|-2-0-------------------|


  F5E5D5      G5A5BbA5G5F5  G5F5E5 N.C.
  PM|       PM----------------|
  S S q  e. S S S S S S S   S S q  S +S      +S  +S      +S  +S      +Q
|-------------------------|-----------------------------------------------|
|-------------------------|-----------------------------------------------|
|-------------------------|-----------------------------------------------|
|-------------------------|-----------------------------------------------|
|-3-2-0--0--0-5-7-8-7-5-3-|-5-3-2--3-(3)b4.5-(3)-(3)b4.5-(3)-(3)b4.5-(3)--|
|-3-2-0--0--0-5-7-8-7-5-3-|-5-3-2-----------------------------------------|


 Chorus
  D5                     C5
  PM--|   PM  PM-------------|   PM  PM-----|
  S S e E e S S e. S e   S S e E e S S e. S e
|----------------------|----------------------|
|----------------------|----------------------|
|----------------------|----------------------|
|----------------------|-5-5-5---5---5-5--5-5-|
|-0-0-0---0---0-0--0-0-|-3-3-3---3---3-3--3-3-|
|-0-0-0---0---0-0--0-0-|----------------------|


  D5              G5A5BbA5G5F5  G5F5E5 N.C.
  PM--|   PM----------------------|
  S S e E e +s  S S S S S S S   S S q  S +S      +S  +S      +S  +S      +Q
|-----------------------------|-----------------------------------------------|
|-----------------------------|-----------------------------------------------|
|-----------------------------|-----------------------------------------------|
|-----------------------------|-----------------------------------------------|
|-0-0-0---0-(0)-0-5-7-8-7-5-3-|-5-3-2--3-(3)b4.5-(3)-(3)b4.5-(3)-(3)b4.5-(3)--|
|-0-0-0---0-(0)-0-5-7-8-7-5-3-|-5-3-2-----------------------------------------|


  D5                     C5
  PM--|   PM  PM-------------|   PM  PM-----|
  S S e E e S S e. S e   S S e E e S S e. S e
|----------------------|----------------------|
|----------------------|----------------------|
|----------------------|----------------------|
|----------------------|-5-5-5---5---5-5--5-5-|
|-0-0-0---0---0-0--0-0-|-3-3-3---3---3-3--3-3-|
|-0-0-0---0---0-0--0-0-|----------------------|


  D5              G5A5BbA5G5F5  G5F5E5 N.C.
  PM--|   PM----------------------|
  S S e E e +s  S S S S S S S   S S q  S +S      +H
|-----------------------------|-------------------------|
|-----------------------------|-------------------------|
|-----------------------------|-------------------------|
|-----------------------------|-------------------------|
|-0-0-0---0-(0)-0-5-7-8-7-5-3-|-5-3-2--3-(3)b4.5-(3)----|
|-0-0-0---0-(0)-0-5-7-8-7-5-3-|-5-3-2-------------------|


 Verse
  N.C.
  PM------------------------------------------------|
  |-----------3-----------| |---------3-------------|
  S S S S S S S S S S S S S S S S S S S S S S S S
|-------------------------------------------------|
|-------------------------------------------------|
|-------------------------------------------------|
|-------------------------------------------------|
|-------------------------------------------------|
|-7-0-0-8-0-0-7-0-0-8-0-0-7-0-0-8-0-0-7-0-0-8-0-0-|


                                        F5
 ---------------------------------------|
  |--------3--------| |------3----------|
  S S S S S S S S S S S S S S S S S S e  E
|--------------------------------------------|
|--------------------------------------------|
|--------------------------------------------|
|---------------------------------------10---|
|----------------------------------------8---|
|-7-0-0-8-0-0-7-0-0-8-0-0-7-0-0-8-0-0-7------|


  N.C.
  PM------------------------------------------------|
  |------3------| |-------3-------| |-----3---------|
  S S S S S S S S S S S S S S S S S S S S S S S S
|-------------------------------------------------|
|-------------------------------------------------|
|-------------------------------------------------|
|-------------------------------------------------|
|-------------------------------------------------|
|-7-0-0-8-0-0-7-0-0-8-0-0-7-0-0-8-0-0-7-0-0-8-0-0-|


                          G5  F5 E5
 -----------------------|
  |----3----| |----3----|
  S S S S S S S S S S S S  Q   E E
|----------------------------------|
|----------------------------------|
|----------------------------------|
|-------------------------12--10-9-|
|-------------------------10---8-7-|
|-7-0-0-8-0-0-7-0-0-8-0-0----------|


  N.C.                                  F5
  PM------------------------------------|
  |--------3--------| |------3----------|
  S S S S S S S S S S S S S S S S S S e  E
|------------------------------------------|
|------------------------------------------|
|------------------------------------------|
|---------------------------------------10-|
|----------------------------------------8-|
|-7-0-0-8-0-0-7-0-0-8-0-0-7-0-0-8-0-0-7----|


  N.C.                    G5  F5 E5
  PM--------------------|
  |-----3-----| |---3---|
  S S S S S S S S S S S S  Q   E E
|------------------------------------|
|------------------------------------|
|------------------------------------|
|-------------------------12--10-9---|
|-------------------------10---8-7---|
|-7-0-0-8-0-0-7-0-0-8-0-0------------|


  N.C.                                  F5   N.C.                    G5 F5 E5
  PM----------------------------------|      PM--------------------|       PM
  |--------3--------| |------3------|        |----3----| |----3----|
  S S S S S S S S S S S S S S S S S S e  E   S S S S S S S S S S S S Q  E. S
|------------------------------------------|-----------------------------------|
|------------------------------------------|-----------------------------------|
|------------------------------------------|-----------------------------------|
|---------------------------------------10-|-----------------------------------|
|----------------------------------------8-|-------------------------5--3--2---|
|-7-0-0-8-0-0-7-0-0-8-0-0-7-0-0-8-0-0-7----|-7-0-0-8-0-0-7-0-0-8-0-0-5--3--2---|


 Pre-Chorus
  F5E5D5      E5F5G5F5E5D5  E5D5C5    N.C.
  PM|       PM----------------|       PM--|
  S S q  e. S S S S S S S   S S q  e. S S S S S E
|-------------------------|-----------------------|
|-------------------------|-----------------------|
|-------------------------|-----------------------|
|-------------------------|-----5--5--------3p2-0-|
|-3-2-0--0--0-2-3-5-3-2-0-|-2-0-3--3--0-3-5-------|
|-3-2-0--0--0-2-3-5-3-2-0-|-2-0-------------------|


  F5E5D5      G5A5BbA5G5F5  G5F5E5 N.C.
  PM|       PM----------------|
  S S q  e. S S S S S S S   S S q  S +S      +S  +S      +S  +S      +Q
|-------------------------|-----------------------------------------------|
|-------------------------|-----------------------------------------------|
|-------------------------|-----------------------------------------------|
|-------------------------|-----------------------------------------------|
|-3-2-0--0--0-5-7-8-7-5-3-|-5-3-2--3-(3)b4.5-(3)-(3)b4.5-(3)-(3)b4.5-(3)--|
|-3-2-0--0--0-5-7-8-7-5-3-|-5-3-2-----------------------------------------|


   Chorus
    D5                     C5
    PM--|   PM  PM-------------|   PM  PM-----|
    S S e E e S S e. S e   S S e E e S S e. S e
||-----------------------|----------------------|
||o----------------------|----------------------|
||-----------------------|----------------------|
||-----------------------|-5-5-5---5---5-5--5-5-|
||o-0-0-0---0---0-0--0-0-|-3-3-3---3---3-3--3-3-|
||--0-0-0---0---0-0--0-0-|----------------------|


  D5              G5A5BbA5G5F5
  PM--|   PM-------------------
  S S e E e +s  S S S S S S S
|-----------------------------|
|-----------------------------|
|-----------------------------|
|-----------------------------|
|-0-0-0---0-(0)-0-5-7-8-7-5-3-|
|-0-0-0---0-(0)-0-5-7-8-7-5-3-|


  G5F5E5 N.C.
 ---|
  S S q  S +S      +S  +S      +S  +S      +Q    3x
|------------------------------------------------||
|-----------------------------------------------o||
|------------------------------------------------||
|------------------------------------------------||
|-5-3-2--3-(3)b4.5-(3)-(3)b4.5-(3)-(3)b4.5-(3)--o||
|-5-3-2------------------------------------------||


  D5                     C5
  PM--|   PM  PM-------------|   PM  PM-----|
  S S e E e S S e. S e   S S e E e S S e. S e
|----------------------|----------------------|
|----------------------|----------------------|
|----------------------|----------------------|
|----------------------|-5-5-5---5---5-5--5-5-|
|-0-0-0---0---0-0--0-0-|-3-3-3---3---3-3--3-3-|
|-0-0-0---0---0-0--0-0-|----------------------|


  D5              G5A5BbA5G5F5  G5F5E5 N.C.
  PM--|   PM----------------------|
  S S e E e +s  S S S S S S S   S S q  S +S      +H
|-----------------------------|-------------------------|
|-----------------------------|-------------------------|
|-----------------------------|-------------------------|
|-----------------------------|-------------------------|
|-0-0-0---0-(0)-0-5-7-8-7-5-3-|-5-3-2--3-(3)b4.5-(3)----|
|-0-0-0---0-(0)-0-5-7-8-7-5-3-|-5-3-2-------------------|


   Bridge
    Faster Q=155
    G5A5    C5 A5BbA5Bb5 G5A5    C5 A5BbA5Bb5
    E E E E  E S E S E   E E E E  E S E S E
||---------------------|--------------------|
||o--------------------|--------------------|
||---------------------|--------------------|
||---------------------|--------------------|
||o-5-7-7-7-10-7-8-7-8-|-5-7-7-7-10-7-8-7-8-|
||--5-7-7-7-10-7-8-7-8-|-5-7-7-7-10-7-8-7-8-|


  G5A5    C5 A5BbA5Bb5 G5A5    C5 A5BbA5Bb5
  E E E E  E S E S E   E E E E  E S E S E
|--------------------|----------------------||
|--------------------|---------------------o||
|--------------------|----------------------||
|--------------------|----------------------||
|-5-7-7-7-10-7-8-7-8-|-5-7-7-7-10-7-8-7-8--o||
|-5-7-7-7-10-7-8-7-8-|-5-7-7-7-10-7-8-7-8---||


    D5      Bb5       A5      N.C.
    E E E E E E E E   E E E E S S S S S S S S
||------------------|-------------------------|
||o-----------------|-------------------------|
||------------------|-------------------------|
||--7-7-7-7-3-3-3-3-|-2-2-2-2-----------------|
||o-5-5-5-5-1-1-1-1-|-0-0-0-0-7-0-0-8-0-0-7-0-|
||------------------|-------------------------|


                    1.
  D5      Bb5       A5      N.C.
  E E E E E E E E   E E E E S S S S S S S S
|-----------------|--------------------------||
|-----------------|-------------------------o||
|-----------------|--------------------------||
|-7-7-7-7-3-3-3-3-|-2-2-2-2------------------||
|-5-5-5-5-1-1-1-1-|-0-0-0-0-7-0-0-8-0-0-7-0-o||
|-----------------|--------------------------||


  2.
  N.C.
  S S S S S S S S S S S S S S S S   S S S S S S S S S S S S S S S S
|---------------------------------|---------------------------------|
|---------------------------------|---------------------------------|
|---------------------------------|---------------------------------|
|---------------------------------|---------------------------------|
|-7p0-0-0-0-0-0-0-7p0-0-8p0-0-7p0-|-7p0-0-0-0-0-0-0-7p0-0-8p0-0-7p0-|
|---------------------------------|---------------------------------|


  S S S S S S S S S S S S S S S S   e E H.
|---------------------------------|-----------|
|---------------------------------|-----------|
|---------------------------------|-----------|
|---------------------------------|-----------|
|-7p0-0-0-0-0-0-0-7p0-0-8p0-0-7p0-|-7---------|
|---------------------------------|-----------|


 Verse
  Slower Again Q=105
  N.C.
  PM------------------------------------------------|
  |--------3--------| |-----3-----| |-----3---------|
  S S S S S S S S S S S S S S S S S S S S S S S S
|-------------------------------------------------|
|-------------------------------------------------|
|-------------------------------------------------|
|-------------------------------------------------|
|-------------------------------------------------|
|-7-0-0-8-0-0-7-0-0-8-0-0-7-0-0-8-0-0-7-0-0-8-0-0-|


                                        F5
 ---------------------------------------|
  |---------3---------| |-----3---------|
  S S S S S S S S S S S S S S S S S S e  E
|--------------------------------------------|
|--------------------------------------------|
|--------------------------------------------|
|---------------------------------------10---|
|----------------------------------------8---|
|-7-0-0-8-0-0-7-0-0-8-0-0-7-0-0-8-0-0-7------|


  N.C.
  PM------------------------------------------------|
  |--------3--------| |------3------| |----3--------|
  S S S S S S S S S S S S S S S S S S S S S S S S
|-------------------------------------------------|
|-------------------------------------------------|
|-------------------------------------------------|
|-------------------------------------------------|
|-------------------------------------------------|
|-7-0-0-8-0-0-7-0-0-8-0-0-7-0-0-8-0-0-7-0-0-8-0-0-|


                          G5  F5 E5
 -----------------------|
  |----3----| |----3----|
  S S S S S S S S S S S S  Q   E E
|----------------------------------|
|----------------------------------|
|----------------------------------|
|-------------------------12--10-9-|
|-------------------------10---8-7-|
|-7-0-0-8-0-0-7-0-0-8-0-0----------|


  N.C.                                  F5
  PM------------------------------------|
  |-------3-------| |-------3-----------|
  S S S S S S S S S S S S S S S S S S e  E
|------------------------------------------|
|------------------------------------------|
|------------------------------------------|
|---------------------------------------10-|
|----------------------------------------8-|
|-7-0-0-8-0-0-7-0-0-8-0-0-7-0-0-8-0-0-7----|


  N.C.                    G5  F5 E5
  PM--------------------|
  |----3----| |----3----|
  S S S S S S S S S S S S  Q   E E
|------------------------------------|
|------------------------------------|
|------------------------------------|
|-------------------------12--10-9---|
|-------------------------10---8-7---|
|-7-0-0-8-0-0-7-0-0-8-0-0------------|


  N.C.                                  F5   N.C.                    G5 F5 E5
  PM----------------------------------|      PM--------------------|       PM
  |-------3-------| |-------3-------|        |---3---| |-----3-----|
  S S S S S S S S S S S S S S S S S S e  E   S S S S S S S S S S S S Q  E. S
|------------------------------------------|-----------------------------------|
|------------------------------------------|-----------------------------------|
|------------------------------------------|-----------------------------------|
|---------------------------------------10-|-----------------------------------|
|----------------------------------------8-|-------------------------5--3--2---|
|-7-0-0-8-0-0-7-0-0-8-0-0-7-0-0-8-0-0-7----|-7-0-0-8-0-0-7-0-0-8-0-0-5--3--2---|


 Pre-Chorus
  F5E5D5      E5F5G5F5E5D5  E5D5C5    N.C.
  PM|       PM----------------|       PM--|
  S S q  e. S S S S S S S   S S q  e. S S S S S E
|-------------------------|-----------------------|
|-------------------------|-----------------------|
|-------------------------|-----------------------|
|-------------------------|-----5--5--------3p2-0-|
|-3-2-0--0--0-2-3-5-3-2-0-|-2-0-3--3--0-3-5-------|
|-3-2-0--0--0-2-3-5-3-2-0-|-2-0-------------------|


  F5E5D5      G5A5BbA5G5F5  G5F5E5 N.C.
  PM|       PM----------------|
  S S q  e. S S S S S S S   S S q  S +S      +S  +S      +S  +S      +Q
|-------------------------|-----------------------------------------------|
|-------------------------|-----------------------------------------------|
|-------------------------|-----------------------------------------------|
|-------------------------|-----------------------------------------------|
|-3-2-0--0--0-5-7-8-7-5-3-|-5-3-2--3-(3)b4.5-(3)-(3)b4.5-(3)-(3)b4.5-(3)--|
|-3-2-0--0--0-5-7-8-7-5-3-|-5-3-2-----------------------------------------|


   Chorus
    D5                     C5
    PM--|   PM  PM-------------|   PM  PM-----|
    S S e E e S S e. S e   S S e E e S S e. S e
||-----------------------|----------------------|
||o----------------------|----------------------|
||-----------------------|----------------------|
||-----------------------|-5-5-5---5---5-5--5-5-|
||o-0-0-0---0---0-0--0-0-|-3-3-3---3---3-3--3-3-|
||--0-0-0---0---0-0--0-0-|----------------------|


  D5              G5A5BbA5G5F5
  PM--|   PM-------------------
  S S e E e +s  S S S S S S S
|-----------------------------|
|-----------------------------|
|-----------------------------|
|-----------------------------|
|-0-0-0---0-(0)-0-5-7-8-7-5-3-|
|-0-0-0---0-(0)-0-5-7-8-7-5-3-|


  G5F5E5 N.C.
 ---|
  S S q  S +S      +S  +S      +S  +S      +Q    3x
|------------------------------------------------||
|-----------------------------------------------o||
|------------------------------------------------||
|------------------------------------------------||
|-5-3-2--3-(3)b4.5-(3)-(3)b4.5-(3)-(3)b4.5-(3)--o||
|-5-3-2------------------------------------------||


  D5                     C5
  PM--|   PM  PM-------------|   PM  PM-----|
  S S e E e S S e. S e   S S e E e S S e. S e
|----------------------|----------------------|
|----------------------|----------------------|
|----------------------|----------------------|
|----------------------|-5-5-5---5---5-5--5-5-|
|-0-0-0---0---0-0--0-0-|-3-3-3---3---3-3--3-3-|
|-0-0-0---0---0-0--0-0-|----------------------|


   Bridge
    Q=155
    D5      Bb5       A5      N.C.
    E E E E E E E E   E E E E S S S S S S S S
||------------------|-------------------------|
||o-----------------|-------------------------|
||------------------|-------------------------|
||--7-7-7-7-3-3-3-3-|-2-2-2-2-----------------|
||o-5-5-5-5-1-1-1-1-|-0-0-0-0-7-0-0-8-0-0-7-0-|
||------------------|-------------------------|


                    1.
  D5      Bb5       A5      N.C.
  E E E E E E E E   E E E E S S S S S S S S
|-----------------|--------------------------||
|-----------------|-------------------------o||
|-----------------|--------------------------||
|-7-7-7-7-3-3-3-3-|-2-2-2-2------------------||
|-5-5-5-5-1-1-1-1-|-0-0-0-0-7-0-0-8-0-0-7-0-o||
|-----------------|--------------------------||


  2.
  N.C.
  S S S S S S S S S S S S S S S S   S S S S S S S S S S S S S S S S
|---------------------------------|---------------------------------|
|---------------------------------|---------------------------------|
|---------------------------------|---------------------------------|
|---------------------------------|---------------------------------|
|-7p0-0-0-0-0-0-0-7p0-0-8p0-0-7p0-|-7p0-0-0-0-0-0-0-7p0-0-8p0-0-7p0-|
|---------------------------------|---------------------------------|


  S S S S S S S S S S S S S S S S    W
|---------------------------------|--------|
|---------------------------------|--------|
|---------------------------------|--------|
|---------------------------------|--------|
|-7p0-0-0-0-0-0-0-7p0-0-8p0-0-7p0-|--------|
|---------------------------------|-15\----|


   Outro
    N.C.
    S S S S S S S S S S S S S S S S   S S S S S S S S S S S S S S S S   4x
||----------------------------------|-----------------------------------||
||o---------------------------------|----------------------------------o||
||----------------------------------|-----------------------------------||
||----------------------------------|-----------------------------------||
||o-0-0-0-0-0-0-0-0-7p0-0-8p0-0-7p0-|-0-0-0-0-0-0-0-0-7p0-0-8p0-0-7p0--o||
||----------------------------------|-----------------------------------||

-----------------------------------------------------

3.Revenga

[Intro: Clean]
D#-----------5-------6-------6--5--4----------------------------------------|
A#---6-------6-------6-------6--6--5----------------------------------------|
F#---7-------7-------7-------7--7--7----------------------------------------|
C#---7----------------------------------------------------------------------|
G#---5----------------------------------------------------------------------|
C#---------------------------------------------------14/4-------------------|


[Verse 1: Trebled Distortion] x2
    Slide  PM.............................           PM........................................
D#---------------------------------------------------------------------------------------------|
A#---------------------------------------------------------------------------------------------|
F#---------------------------------------------------------------------------------------------|
C#---------0-000---000---000---000---000-0--8-8-8----0-000---000---000-0---885--885--885--885--|
G#---------0-000---000---000---000---000-0--8-8-8----0-000---000---000-0---885--885--885--885--|
C#---------0-000---000---000---000---000-0--8-8-8----0-000---000---000-0---885--885--885--885--|

[Verse 2: Trebled Distortion]
    PM..................................           PM.................
D#---------------------------------------------------------------------------------------|
A#---------------------------------------------------------------------------------------|
F#---------------------------------------------------------------------------------------|
C#---------------------------------------11----------------------------11---12---11-8-7--|
G#---------------------------------------11----------------------------11---12---11-8-7--|
C#--00000---00000---00000---00000---0000-11-------00000---00000---0000-11---12---11-8-7--|


[Verse 3: Trebled Distortion]
    PM....................           PM...................
D#---------------------------------------------------------------------------------------|
A#---------------------------------------------------------------------------------------|
F#---------------------------------------------------------------------------------------|
C#---------------------------------------------------------------------11---12---14--15--|
G#---------------------------------------------------------------------11---12---14--15--|
C#--00000---00000---00000---00000---0000-11--------0000---00000---0000-11---12---14--15--|


[Chorus: Trebled Distortion] x2
        PM.........     PM.........     PM.........     PM.........     PM.........
D#--------------------------------------------------------------------------------------|
A#--------------------------------------------------------------------------------------|
F#--------------------------------------------------------------------------------------|
C#--0---0-0-0-0-0-0-0---0-0-0-0-0-0-7---7-7-7-7-7-7-7---7-7-7-7-7-7-8---8-8-8-8-8-8-8---|
G#--0---0-0-0-0-0-0-0---0-0-0-0-0-0-7---7-7-7-7-7-7-7---7-7-7-7-7-7-8---8-8-8-8-8-8-8---|
C#--0---0-0-0-0-0-0-0---0-0-0-0-0-0-7---7-7-7-7-7-7-7---7-7-7-7-7-7-8---8-8-8-8-8-8-8---|

PM.             PM.........     PM.........
D#--------------------------------------------|
A#--------------------------------------------|
F#--------------------------------------------|
C#8-8-8---7---6---6-6-6-6-6-6-3---3-3-3-3-3-3-|
G#8-8-8---7---6---6-6-6-6-6-6-3---3-3-3-3-3-3-|
C#8-8-8---7---6---6-6-6-6-6-6-3---3-3-3-3-3-3-|

[Verse 2]

[Verse 3]

[Chorus] x2

[Verse 1] x4

[Intro]

[Intro 2: Clean]
D#-----------5-------6-------6--5--6------------------------------------|
A#---6-------6-------6-------6--6--6------------------------------------|
F#---7-------7-------7-------7--7--7------------------------------------|
C#---7------------------------------------------------------------------|
G#---5------------------------------------------------------------------|
C#----------------------------------------------------------------------|

[Solo: Trebled Distortion] x2
D#---------------------------------------------------------------------------------------|
A#---------------------------------------------------------------------------------------|
F#------7--------------------10-----------------------8--------------------7-------------|
C#--------7---------------------10----------------------8--------------------7-----------|
G#---5------8--5-4-5-7-----8-------11--8-7-8-10-----6-----9--6-5-6-8-----5-----8--5-4-5--|
C#---------------------------------------------------------------------------------------|

[Chorus] x2

[Verse 2]

[Verse 1] x2

-----------------------------------------------------------

4.Cigaro

intro
D|----------------------------------------------------------------||
A|----------------------------------------------------------------||
F|----------------------------------------------------------------||
C|-1-1-2p1-1-1-2p1-1-1-2p1-1-1-2p1--------------------------------||
G|-1-1-2p1-1-1-2p1-1-1-2p1-1-1-2p1--7-6-4-6-4-2-4-2---------------||
C|-1-1-2p1-1-1-2p1-1-1-2p1-1-1-2p1--------------------------------||
   * *     * *     * *     * *
end intro on>
D|------------------------------------------------||
A|------------------------------------------------||
F|------------------------------------------------||
C|-2p1-2p1-2p1-2p1-2p1-2p1-2p1-2p1----------------||
G|-2p1-2p1-2p1-2p1-2p1-2p1-2p1-2p1--7-6-4-6-4-2-4-2|
C|-2p1-2p1-2p1-2p1-2p1-2p1-2p1-2p1----------------||
   * * * * * * * * * * * * * * * *
my cock is much bigger than yours!
D|----------------||
A|----------------||
F|----------------||
C|-1-1-1----------||
G|-1-1-1----------||
C|-1-1-1----------||
   * * *

D|------------------------------------------------||
A|------------------------------------------------||
F|-----------------------------------8-8-8--------||
C|11-10-11-10---8-7-8-7----4-3--4-3--8-8-8--------||
G|-9/-8--9/-8---6/5-6/5----2/1--2/1--6-6-6--------||
C|------------------------------------------------||

chorus - same as intro
D|----------------------------------------------------------------||
A|----------------------------------------------------------------||
F|----------------------------------------------------------------||
C|-1-1-2p1-1-1-2p1-1-1-2p1-1-1-2p1--------------------------------||
G|-1-1-2p1-1-1-2p1-1-1-2p1-1-1-2p1--7-6-4-6-4-2-4-2---------------||
C|-1-1-2p1-1-1-2p1-1-1-2p1-1-1-2p1--------------------------------||
   * *     * *     * *     * *
end chorus on>
D|----------------||
A|----------------||
F|--8-8-8---------||
C|--8-8-8---------||
G|--6-6-6---------||
C|----------------||

bridge
D|---------------------------------------------||
A|---------------------------------------------||
F|---------------------------------------------||
C|---------------------------------------------||
G|-767676767676767676767676--7-6-4-6-4-2-4-2---||
C|---------------------------------------------||
   ************************

cant YOU see THAT i LOVE my COCK!
D|-----------------------------------------------||
A|-----4-----4-----4-----4-----------------------||
F|-----3-----3-----3-----3-----------------------||
C|-1-1---1-1---1-1---1-1-------------------------||
G|-1-1---1-1---1-1---1-1-------------------------||
C|-1-1---1-1---1-1---1-1-------------------------||


D|------------------------------------------------||
A|--7676------------------------------------------||
F|-------8787-------------------------------------||
C|------------9898-6-6----------------------------||
G|------------------5-5---------------------------||
C|------------------------------------------------||

we're the regulators that deregulate
D|------------------------------------------------||
A|------------------------------------------------||
F|-----------------------------------------1------||
C|--------------------------------------0---------||
G|-9898-11-10-11-10-6565-7676-21212121------------||
C|------------------------------------------------||

end on
D|--------------------------------||
A|--------------------------------||
F|------------------88888---------||
C|-111-111-111-111--88888---------||
G|-111-111-111-111--66666---------||
C|-111-111-111-111----------------||

-------------------------------------------------------------------

5.Radio/Video

Intro:

e|------------------------------------------------------------------------|
B|----10-----12-----------14----14----14--15p14------------14p------------|
G|-------xxx------------------------------------15--15--15-----13--13--13-|
D|-------xxx--------------------------------------------------------------|
A|-9-----xxx----10-10/12-----12----12-------------12--12---------12--12---|
E|------------------------------------------------------------------------|

e|----------------------------------------------------------------------------|
B|----10------12-----------14----14----14--15p14------------------------------|
G|-----------------------------------------------16--16--16-------------------|
D|----------------------------------------------------------------------------|
A|-99---99/10---10-10/12-----12----12--------------12--12----16-15-13-11-10-9-|
E|----------------------------------------------------------------------------|

e|------------------------------------------------------------------------|
B|----10-----12-----------14----14----14--15p14------------14p------------|
G|-------xxx------------------------------------15--15--15-----13--13--13-|
D|-------xxx--------------------------------------------------------------|
A|-9-----xxx----10-10/12-----12----12-------------12--12---------12--12---|
E|------------------------------------------------------------------------|

e|---------------------------------------------------------------------------|
B|----10------12-----------14----14----14--15p14-----------------------------|
G|-----------------------------------------------16--16--16------------------|
D|---------------------------------------------------------------------------|
A|-99---99/10---10-10/12-----12----12--------------12--12----16-15-13-11-10--|
E|---------------------------------------------------------------------------|

hey man look at me rocking now im on the radio
e|-----------------------------------------|
B|--------33333333--55555555555555---------|
G|--------33333333--55555555555555---------|
D|-44--4--33333333--55555555555555---------|
A|-44--4--11111111--33333333333333---------|
E|-22--6-----------------------------------|


hey man look at me rocking now im on the video
e|-----------------------------------------|
B|--------33333333-666666666666666---------|
G|--------33333333-666666666666666---------|
D|-44--4--33333333-666666666666666---------|
A|-44--4--11111111-444444444444444---------|
E|-22--6-----------------------------------|


with danny and lisa...
e|----------------------|
B|-4--------------------|
G|-4--5--4--3--2--------|
D|-4--5--4--3--2--------|
A|-6--5--4--3--2--------|
E|----------------------|


they take me away from....the strangest place of...
e|-------------------1-1-1-1-1-1-1-1--3-3-3-3-3-3-5-3--|
B|--3-3-3-3-3-3-3-3--2-2-2-2-2-2-2-2--4-3-4-3-4-3-4-3--|
G|--4-3-4-3-4-3-4-3--3-3-3-3-3-3-3-3--5-3-5-3-5-3-5-3--|
D|--5-3-5-3-5-3-5-3------------------------------------|
A|-----------------------------------------------------|
E|-----------------------------------------------------|


 (serj and daron harmonizing) "sweet danny and lisa"...
e|------------------------------------------------------|
B|---------------5/6--5----------------------5/7--5-----|
G|-44--2--4/5--3--------6--5---44--2--4/5--3--------7--5|
D|------------------------------------------------------|
A|------------------------------------------------------|
E|------------------------------------------------------|


hey man look at me rockin now im on the radio!!!!
e|---5-------7-------9--9--9-------------------------|
B|-----------------------------666666666666----------|
G|-----------------------------666666666666----------|
D|-4---44/55---5-5/7--7--7-----666666666666----------|
A|-----------------------------444444444444----------|
E|---------------------------------------------------|


hey man look at me rocking now im on the video!!!!
e|---5-------7-------9--9--9-------------------------|
B|-----------------------------666666666666----------|
G|-----------------------------666666666666--5-4-3-2-|
D|-4---44/55---5-5/7--7--7-----666666666666--5-4-3-2-|
A|-----------------------------444444444444--5-4-3-2-|
E|---------------------------------------------------|


they take me away from....
e|--333-3-------------------|
B|--444-3-------------------|
G|--555-3-------------------|
D|--------------------------|
A|--------------------------|
E|--------------------------|

------------------------------------------------------

6.This Cocaine Makes Me Feel Like I'm On This Song

intro:1
E|---------------------------------------------||
B|---------------------------------------------||
G|---------------------------------------------||
D|--5-5------5-8-7-7------5-7-8-8------8-7-5-5-||
A|--5-5-rest-5-8-7-7-rest-5-7-8-8-rest-8-7-5-5-||
D|--5-5------5-8-7-7------5-7-8-8------8-7-5-5-||

intro 2:twice
E|----------------------||
B|----------------------||
G|---------7-7-7-7^-7---||  2x
D|-5-8-7-7--------------||
A|-5-8-7-7--------------||
D|-5-8-7-7--------------||

E|----------------------||
B|----------------------||
G|---------8-8-8-8^-8---|| 1x
D|-5-7-8-8--------------||
A|-5-7-8-8--------------||
D|-5-7-8-8--------------||

E|----------------------||
B|----------------------||
G|---------7-7-7-7^-7---||
D|-8-7-5-5--------------|| 1x
A|-8-7-5-5--------------||
D|-8-7-5-5--------------||

intro 3:
E|----------------||
B|----------------||
G|----------------||
D|-8-7-8-7-8-5----|| 4x
A|-8-7-8-7-8-5----||
D|-8-7-8-7-8-5----||

E|----------------||
B|----------------||
G|----------------||
D|-8-7-8-7-8-5----|| 4x
A|----------------||
D|----------------||

verse
E|----------------||
B|----------------||
G|-7-7-7-7-7-7-7--|| buncha x
D|----------------||
A|----------------||
D|----------------||


then just g or [555xxx] lots times where its sketchy

intro 1: 1x
intro 2: 2x
intro 3: 1x
verse: lots of times
then just repeat lots of times!

------------------------------------------------------

7.Violent Pornography

Intro (clean)
Eb |----------------------------------|
Bb |----------------------------------|
Gb |----------------------------------|
Db |-0-4-5-7-787-787-5-4b---8--12--8--| X2
Ab |----------------------------------|
Db |----------------------------------|


       Verse
Eb |--------------------------|
Bb |--------------------------|
Gb |--------------------------|
Db |--------------------------|
Ab |--------------------------|
Db |0-1----1-2----2-1----1-0--| X2


       Pre Verse
Eb |----------------------------------|
Bb |----------------------------------|
Gb |----------------------------------|
Db |000000000-1-3-4--000000000-4-3-1--|
Ab |000000000-1-3-4--000000000-4-3-1--|
Db |000000000-1-3-4--000000000-4-3-1--|
    xxxxxxxxx        xxxxxxxxx

Eb |-------------------------------------|
Bb |-------------------------------------|
Gb |-------------------------------------|
Db |000-000-000-1-3-4--000-000-000-4-3-1-|
Ab |000-000-000-1-3-4--000-000-000-4-3-1-|
Db |000-000-000-1-3-4--000-000-000-4-3-1-|

    Repeat Verse X2
    Repeat Pre Verse X2


      Chorus
Eb |------------------------------------|
Bb |------------------------------------|
Gb |------------------------------------|
Db |0--4--5--7--8--10--0--1-------------|
Ab |0--4--5--7--8--10--0--1-------------|
Db |0--4--5--7--8--10--0--1-------------|

     Chorus 2
Eb |------------------------------------------------------------------------|
Bb |------------------------------------------------------------------------|
Gb |------------------------------------------------------------------------|
Db |000000004444444455555555777777778888888810101010101010100000000011111111
Ab |000000004444444455555555777777778888888810101010101010100000000011111111
Db |000000004444444455555555777777778888888810101010101010100000000011111111
     xxxxxxx xxxxxxx xxxxxxx xxxxxxx xxxxxxx  x x x x x x x  xxxxxxx xxxxxxx
                                            These Are 10s Not 1 0

      Repeat Verse X2
      Repeat Pre Verse X2
      Repeat Chorus X2
      Repeat Chorus 2 X1
      Repeat Chorus X1

     End Of Last Chorus
Eb |-----------|
Bb |-----------|
Gb |-----------|
Db |0--1--0--1-|
Ab |0--1--0--1-|
Db |0--1--0--1-|

      Repeat Intro X2 To Finish Song

-------------------------------------------------------

8.Question!

Intro/verse:  X8


D |---5---5---5---5---5---5---5---5----|---2------------------------||
A |----------------7----------------7--|---2------------------------||
F |--6--6-------6----6--6-------6------|---2------------------------||
C |---------4---------------4----------|---4------------------------||
G |------------------------------------|---4------------------------||
C |------------------------------------|----------------------------||


Main Riff:  X4


D |----------------------------||
A |----------------------------||
F |-----6/-4-------------------||
C |--4--6/-4-7-9--6-7----------||
G |--4--4/-2-7-9--6-7----------||
C |--4-------7-9--6-7----------||


After the main riff All palm muted:  X4

D |----------------------------|----------||
A |----------------------------|----------||
F |-------6-6--4-4-------------|----------||
C |---4-4-6-6--4-4--7-9--6-7---|---4------||
G |---4-4-4-4--2-2--7-9--6-7---|---4------||
C |---4-4-----------7-9--6-7---|---4------||


Verse:  X13

Guitar 1:
D |---5---5---5---5---5---5---5---5----||
A |----------------7----------------7--||
F |--6--6-------6----6--6-------6------||
C |---------4---------------4----------||
G |------------------------------------||
C |------------------------------------||

Guitar 2/Bass:

D |------------------------------------------------||
A |------------------------------------------------||
F |------------------------------------------------||
C |-----2-4---2--------2-4---2---------------------||
G |---2-----5---4-5--2-----5---4-5-----------------||
C |------------------------------------------------||


D |---------------------------------||
A |---------------------------------||
F |---------------------------------||
C |---2-4---2-----------2-4-----2-4-||
G |-2-----5---4-5---2-5-----2-5-----||
C |---------------------------------||

D |------------------------------------------------||
A |------------------------------------------------||
F |------------------------------------------------||
C |-----2-4---2--------2-4---2---------------------||
G |---2-----5---4-5--2-----5---4-5-----------------||
C |------------------------------------------------||

D |----------------------------------------------------||
A |----------------------------------------------------||
F |----------------------------------------------------||
C |---2-4---2-----------2-4-----2-4-----2-4-----2-4----||
G |-2-----5---4-5---2-5-----2-5-----2-5-----2-5--------||
C |----------------------------------------------------||


Pre chorus:  X2
D |------------------------------------------------||
A |--7--7-7-7-7-7--3---3-3-3-3-3-------------------||
F |--6--6-6-6-6-6--2---2-2-2-2-2-------------------||
C |--4--4-4-4-4-4--0---0-0-0-0-0-------------------||
G |--4-------------0-------------------------------||
C |--4-------------0-------------------------------||

Chorus: X2
D |----------------------------------------------------------------||
A |----------------------------------------------------------------||
F |----------------------------------------------------------------||
C |--4-44-6p4-4-44-6p4-4-44-6p4-4-44-6p4-4-44-6p4-4-44-6p4---------||
G |--4-44-----4-44-----4-44-----4-44-----4-44-----4-44-------------||
C |--4-44-----4-44-----4-44-----4-44-----4-44-----4-44-------------||
PM     ..       ..       ..       ..

D |--------------------------------||
A |--------------------------------||
F |--------------------------------||
C |--9-9--9h11-11-12p11-11-11p9----||
G |--9-9---------------------------||
C |--9-9---------------------------||
PM     .       .        .

Post chorus:

D |----------------||
A |----------------||
F |----------------||
C |--9-9~----------||
G |--9-9~----------||
C |--9-9~----------||

D |----------------------------||
A |----------------------------||
F |-----6/-4-------------------||
C |--4--6/-4-7-9--6-7----------||    X2
G |--4--4/-2-7-9--6-7----------||
C |--4-------7-9--6-7----------||

Verse:
Guitar 1:
D |---5---5---5---5---5---5---5---5----||
A |----------------7----------------7--||
F |--6--6-------6----6--6-------6------||
C |---------4---------------4----------||
G |------------------------------------||
C |------------------------------------||

Guitar 2/Bass:

D |------------------------------------------------||
A |------------------------------------------------||
F |------------------------------------------------||
C |-----2-4---2--------2-4---2---------------------||
G |---2-----5---4-5--2-----5---4-5-----------------||
C |------------------------------------------------||

D |---------------------------------||
A |---------------------------------||
F |---------------------------------||
C |---2-4---2-----------2-4-----2-4-||
G |-2-----5---4-5---2-5-----2-5-----||
C |---------------------------------||

D |------------------------------------------------||
A |------------------------------------------------||
F |------------------------------------------------||
C |-----2-4---2--------2-4---2---------------------||
G |---2-----5---4-5--2-----5---4-5-----------------||
C |------------------------------------------------||

D |----------------------------------------------------||
A |----------------------------------------------------||
F |----------------------------------------------------||
C |---2-4---2-----------2-4-----2-4-----2-4-----2-4----||
G |-2-----5---4-5---2-5-----2-5-----2-5-----2-5--------||
C |----------------------------------------------------||


Pre chorus:  X2
D |------------------------------------------------||
A |--7--7-7-7-7-7--3---3-3-3-3-3-------------------||
F |--6--6-6-6-6-6--2---2-2-2-2-2-------------------||
C |--4--4-4-4-4-4--0---0-0-0-0-0-------------------||
G |--4-------------0-------------------------------||
C |--4-------------0-------------------------------||

Chorus: X2
D |----------------------------------------------------------------||
A |----------------------------------------------------------------||
F |----------------------------------------------------------------||
C |--4-44-6p4-4-44-6p4-4-44-6p4-4-44-6p4-4-44-6p4-4-44-6p4---------||
G |--4-44-----4-44-----4-44-----4-44-----4-44-----4-44-------------||
C |--4-44-----4-44-----4-44-----4-44-----4-44-----4-44-------------||
PM     ..       ..       ..       ..

D |--------------------------------||
A |--------------------------------||
F |--------------------------------||
C |--9-9--9h11-11-12p11-11-11p9----||
G |--9-9---------------------------||
C |--9-9---------------------------||
PM     .       .        .


Post Chorus:

D |---------------||
A |---------------||
F |--11--6~-------||
C |--9---4~-------||
G |--9---4~-------||
C |--9---4~-------||

D |----------------------------||
A |----------------------------||
F |-----6/-4-------------------||
C |--4--6/-4-7-9--6-7----------||   X4
G |--4--4/-2-7-9--6-7----------||
C |--4-------7-9--6-7----------||

All Palm Muted
D |----------------------------||
A |----------------------------||
F |-------6-6--4-4-------------||
C |---4-4-6-6--4-4--7-9--6-7---||   X4
G |---4-4-4-4--2-2--7-9--6-7---||
C |---4-4-----------7-9--6-7---||

All Palm Muted
D |----------------------------||
A |----------------------------||
F |----------------------------||
C |----------------------------||    X4
G |-----444-222----------------||
C |--444--------77-99-66-77----||

Da da da...
D |----------------------------||
A |----------------------------||
F |-----6/-4-------------------||
C |--4--6/-4-7-9--6-7----------||   X6
G |--4--4/-2-7-9--6-7----------||
C |--4-------7-9--6-7----------||

D |----------------------------------------------------------------||
A |----------------------------------------------------------------||
F |----------------------------------------------------------------||
C |----------------------------------------------------------------||
G |----------------------------------------------------------------||
C |----4-4444-0-4-4444-0-4-4444-0-4-4444-0-------------------------||


Chorus:  X2

D |----------------||
A |----------------||
F |----------------||   X11
C |----------------||
G |----------------||
C |--4-4444-0------||


D |----------------||
A |----------------||
F |----------------||  X2
C |----------------||
G |-22222222222----||
C |----------------||

Post Chorus:

D |----------------------------||
A |----------------------------||
F |-----6/-4-------------------||
C |--4--6/-4-7-9--6-7----------||   X4
G |--4--4/-2-7-9--6-7----------||
C |--4-------7-9--6-7----------||


D |-----------------||
A |-----------------||
F |---6~------------||
C |---4~------------||
G |---4~------------||
C |---4~------------||

D |---5---5---5---5---5---5---5---5----||
A |----------------7----------------7--||
F |--6--6-------6----6--6-------6------||
C |---------4---------------4----------||  X4
G |------------------------------------||
C |------------------------------------||


D |--2--------------||
A |--2--------------||
F |--2--------------||
C |--4--------------||
G |--4--------------||
C |-----------------||


D |----------------------------||
A |----------------------------||
F |-----6/-4-------------------||
C |--4--6/-4-7-9--6-7----------||   X2
G |--4--4/-2-7-9--6-7----------||
C |--4-------7-9--6-7----------||

-------------------------------------------------------

9.Sad Statue

Tabbed by: Seen K. Leeds (abandapar@socal.rr.com)

INTRO
Eb |--------------------------|
Bb |--------------------------|
Gb |--------------------------|
Db |--------------------------|
Ab |--5p0h5p0h5p05p05p05p0h6--|
Db |--------------------------|

   Part I (note: you can play the palm muted part on the open 6th string if you wish)
Eb |-----------------------------------------||--------------------------------|
Bb |-----------------------------------------||--------------------------------|
Gb |--7--------------------------------------||--7-----------------------------|
Db |--7--------------------------------------||--7-------------------8--10--8--|
Ab |--5-555555555555-5p0h5p0h5p05p05p05p0h6--||--5-5555555555555555--6--8---6--|
Db |-----------------------------------------||--------------------------------|
   pm   ............                               ................

Eb |-----------------------------------------||----------------------------------|
Bb |-----------------------------------------||----------------------------------|
Gb |--7--------------------------------------||--7-------------------------------|
Db |--7--------------------------------------||--7--------------8-10-8--8-10-8---|
Ab |--5-555555555555-5p0h5p0h5p05p05p05p0h6--||--5-55555555-----6-8--6--6-8--6---|
Db |-----------------------------------------||-------------12s------------------|
   pm   ............                               ........

   Part II
Eb |--------------------------------------||---------------------------|
Bb |--------------------------------------||---------------------------|
Gb |--7-----------------------------------||--7------------------------|
Db |--7-00-00-00--------------------------||--7-00-00-00-00--8--10--8--|
Ab |--5-00-00-00--5p0h5p0h5p05p05p05p0h6--||--5-00-00-00-00--6--8---6--|
Db |----00-00-00--------------------------||----00-00-00-00------------|
   pm   .. .. ..                                .. .. .. ..

Eb |--------------------------------------||------------------------------|
Bb |--------------------------------------||------------------------------|
Gb |--7-----------------------------------||--7---------------------------|
Db |--7-00-00-00--------------------------||--7-00-00-----8-10-8--8-10-8--|
Ab |--5-00-00-00--5p0h5p0h5p05p05p05p0h6--||--5-00-00-----6-8--6--6-8--6--|
Db |----00-00-00--------------------------||----00-00-12s-----------------|
   pm   .. .. ..                                .. ..

   Part III
Eb |------------------------------|
Bb |------------------------------|
Gb |------------------------------|
Db |------------------------------|
Ab |--5-686--5-686--5-686--5-686--|
Db |------------------------------|
   pm . ...  . ...  . ...  . ...

   Part IV
Eb |------------------------------------------|
Bb |------------------------------------------|
Gb |--777777-8--777777----777777-8--777777----|
Db |--777777-8--777777-8--777777-8--777777-8--|
Ab |--555555-6--555555-6--555555-6--555555-6--|
Db |------------------------------------------|

   Part V (clean w/tremolo effect, then distortion)
Eb |----------------------|------|
Bb |----------------------|------|
Gb |--3~---7~---2~---5~---|--5~--|
Db |--1~---5~---0~---3~---|--3~--|
Ab |--1~---5~---0~---3~---|--3~--|
Db |--1~---5~---0~---3~---|--3~--|

   Part VI (clean-ish)
Eb |----------------------------------------------------------------------|
Bb |----------------------------------------------------------------------|
Gb |------7---8---7--------7---6---7-------------------------7---6---7----|
Db |----5---5---5---5----5---5---5---5------7---8---7------5---5---5---5--|
Ab |--6-----------------------------------5---5---5---5--6----------------|
Db |-------------------5----------------0---------------------------------|

   Part VII (2:14-2:25)
Eb |--------------------------------------------|
Bb |--------------------------7tttttt8tttttttt--|
Gb |--7tt7tt8tt7tt7tt7tt6tt7tt------------------|
Db |--------------------------------------------|
Ab |--------------------------------------------|
Db |--------------------------------------------|

   Part VIII
Eb |---------------------------------------||---------------------------|
Bb |---------------------------------------||---------------------------|
Gb |--7-----7------------------------------||--7-----7------------------|
Db |--7-000-7-000--------------------------||--7-000-7-00000--8--10--8--|
Ab |--5-000-5-000--5p0h5p0h5p05p05p05p0h6--||--5-000-5-00000--6--8---6--|
Db |----000---000--------------------------||----000---00000------------|
   pm   ...   ...                                ...   .....

Eb |---------------------------------------||------------------------------------|
Bb |---------------------------------------||------------------------------------|
Gb |--7-----7------------------------------||--7-----7---------------------------|
Db |--7-000-7-000--------------------------||--7-000-7-00000--8-10-8--8-10-8--7--|
Ab |--5-000-5-000--5p0h5p0h5p05p05p05p0h6--||--5-000-5-00000--6-8--6--6-8--6--5--|
Db |----000---000--------------------------||----000---00000---------------------|
   pm   ...   ...                                ...   .....


STRUCTURE
Intro       x 4
Part I
Part II
Part III    x 2
Part IV
Part III    x 2
Part IV
Part V      x 2
Part III    x 2
Part IV
Part III    x 2
Part IV
Part V      x 2 (with extra chord strum)
Part VI
Part VII
Part I
Part II
Part V      x 2 (all distortion, extra chord)
Part VIII

-------------------------------------------------------------

10.Old School Hollywood

eb|---------|
Bb|---------|
Gb|---------|
Db|---------|
Ab|---------|
Db|-1/5~----|


eb|-------------------|
Bb|-------------------|
Gb|-------------------|
Db|-0h5-7p5-8p5-7p5---|
Ab|-------------------|
Db|-------------------|


eb|---------------------------------|
Bb|---------------------------------|
Gb|---------------------------------| pickslide
Db|---------------------------------|
Ab|---------------------------------|
Db|-******************************--|

  Chorus
eb|------------------|
Bb|------------------|
Gb|------------------|
Db|-0h5-7-5-8-5-7-5--|
Ab|-0h5-7-5-8-5-7-5--|
Db|-0h5-7-5-8-5-7-5--|

  PM Chorus
eb|------------------|
Bb|------------------|
Gb|------------------|
Db|-0-5-7-5-8-5-7-5--|
Ab|-0-5-7-5-8-5-7-5--|
Db|-0-5-7-5-8-5-7-5--|
PM  . . . . . . . .

  Verse
eb|-----------------------------------|
Bb|-----------------------------------|
Gb|-0h5-7p5-8p5-7p5-------------------|
Db|------------------0h5-7p5-8p5-7p5--|
Ab|-----------------------------------|
Db|-----------------------------------|

  Pre-Chorus (0:40 - 0:52) Dist.
eb|----------------------------------------------------------------------------------|
Bb|----------------------------------------------------------------------------------|
Gb|-88888888--77777777--88888888--1010101010101010-10101010101010101010101010101010--|
Db|-88888888--77777777--88888888--1010101010101010-10101010101010101010101010101010--|
Ab|-66666666--55555555--66666666---8-8-8-8-8-8-8-8-8-8-8-8-8-8-8-8-8-8-8-8-8-8-8-8---|
Db|----------------------------------------------------------------------------------|
PM  ........  ........  ........   . . . . . . . .  . . . . . . . .

  Pre-Chorus (same effect as intro)
eb|--------------------------------------|
Bb|--------------------------------13~~--|
Gb|-8~--7~--8~--10~--12~--12~--12~-------|
Db|--------------------------------------|
Ab|--------------------------------------|
Db|--------------------------------------|

  Chorus
eb|------------------|                 |---------------------------------------|
Bb|------------------|                 |---------------------------------------|
Gb|------------------|                 |---------------------------------------|
Db|-0h5-7-5-8-5-7-5--|                 |-0h5-7-5-8-7-5-3--1-1--------0-0--4-7--|
Ab|-0h5-7-5-8-5-7-5--|                 |-0h5-7-5-8-7-5-3--1-1-3/5-3--0-0--4-7--|
Db|-0h5-7-5-8-5-7-5--|                 |-0h5-7-5-8-7-5-3--1-1--------0-0--4-7--|

  Bridge (same effect as intro)
eb|----------------|     |----------------------------|
Bb|----------------|     |----------------------------|
Gb|----------------|     |----------------------------|
Db|-0h5-7p5-8p7p5--|x2   |-0h5-7p5-8p7p5-8p7p5-8p7p5--|
Ab|----------------|     |----------------------------|
Db|----------------|     |----------------------------|


eb|------------------------------------------|     |-----------------------------------|
Bb|------------------------------------------|     |-----------------------------------|
Gb|------------------------------------------|     |-----------------------------------|
Db|------------------------------------------|     |-----------------------------------|
Ab|-66666666--55555555--66666666---88888888--|x2   |-88888888888888888888888888888888--|
Db|------------------------------------------|     |-----------------------------------|

  Chorus
eb|-----------------------------------------------------------------------|
Bb|-----------------------------------------------------------------------|
Gb|-----------------------------------------------------------------------|
Db|-00-55-77-55-88-55-77-55-00-55-77-55-88-77-55-33--1-1--------0-0--4-7--|
Ab|-00-55-77-55-88-55-77-55-00-55-77-55-88-77-55-33--1-1-3/5-3--0-0--4-7--|
Db|-00-55-77-55-88-55-77-55-00-55-77-55-88-77-55-33--1-1--------0-0--4-7--|
PM  .. .. .. .. .. .. .. .. .. .. .. .. .. .. .. ..

  outro
eb|------------------------------------------------|
Bb|------------------------------------------------|
Gb|------------------------------------------------|
Db|-00-55-77-55-88-77-55-33--1-1--------0-0--44-7--|
Ab|-00-55-77-55-88-77-55-33--1-1-3/5-3--0-0--44-7--|
Db|-00-55-77-55-88-77-55-33--1-1--------0-0--44-7--|
PM  .. .. .. .. .. .. .. ..                  ..

----------------------------------------------------------------

11.Lost In Hollywood

INTRO = Strum those in order. It's like 16 times each or so.
  Am
|----------------------------------------|
|----------------------------------------|
|----------------------------------------|
|--2----3----9----7----2----3----12---7--|
|--0----0----0----0----0----0----0----0--|
|----------------------------------------|
  Am
|-----------------------------------------|
|-----------------------------------------|
|-----------------------------------------|
|--2----3----9----7----2----3----12---14--|
|--0----0----0----0----0----0----0----0---|
|-----------------------------------------|

VERSE 1
   Am
|-------------------------------------------------------------------|
|-------------------------------------------------------------------|
|----------2-------4-------5---------------5-------4-------2--------|
|----2---2---2---2---2---2---2---2---2---2---2---2---2---2---2---2--|
|--0---0-------0-------0-------0---0---0-------0-------0-------0----|
|-------------------------------------------------------------------|
   Am
|-------------------------------------------------------------------|
|----------------------------------5--------------------------------|
|----------2-------4-------5---------------5-------4-------2--------|
|----2---2---2---2---2---2---2---2---2---2---2---2---2---2---2---2--|
|--0---0-------0-------0-------0-------0-------0-------0-------0----|
|-------------------------------------------------------------------|
   C                               Em
|-------------------------------------------------------------------|
|----------------------------------3-3-3-3-3-3-3-3-3-3-3-3-3--------|
|------5-----7-----7-----7---------4-4-4-4-4-4-4-4-4-4-4-4-4-5-4-5--|
|----5---5-----5-----5-----5---5---2-2-2-2-2-2-2-2-2-2-2-2-2-2-2-2--|
|--3-------3-----3-----3-----3---3----------------------------------|
|-------------------------------------------------------------------|
   Am
|-------------------------------------------------------------------|
|-------------------------------------------------------------------|
|----------2-------4-------5---------------5-------4-------2--------|
|----2---2---2---2---2---2---2---2---2---2---2---2---2---2---2---2--|
|--0---0-------0-------0-------0---0---0-------0-------0-------0----|
|-------------------------------------------------------------------|
   Am
|-------------------------------------------------------------------|
|----------------------------------5--------------------------------|
|----------2-------4-------5---------------5-------4-------2--------|
|----2---2---2---2---2---2---2---2---2---2---2---2---2---2---2---2--|
|--0---0-------0-------0-------0-------0-------0-------0-------0----|
|-------------------------------------------------------------------|
   C                               Em
|-------------------------------------------------------------------|
|----------------------------------3-3-3-3-3-3-3-3-3-3-3-3-3--------|
|------5-----7-----7-----7---------4-4-4-4-4-4-4-4-4-4-4-4-4-5-4-5--|
|----5---5-----5-----5-----5---5---2-2-2-2-2-2-2-2-2-2-2-2-2-2-2-2--|
|--3-------3-----3-----3-----3---3----------------------------------|
|-------------------------------------------------------------------|

INTRO THING AGAIN
   Am
|-----------------------------------------|
|-----------------------------------------|
|-----------------------------------------|
|--2----3----9----7----2----3----12---14--|
|--0----0----0----0----0----0----0----0---|
|-----------------------------------------|

VERSE 2 = Drums and everything come in.
   Am
|-------------------------------------------------------------------|
|-------------------------------------------------------------------|
|----------2-------4-------5---------------5-------4-------2--------|
|----2---2---2---2---2---2---2---2---2---2---2---2---2---2---2---2--|
|--0---0-------0-------0-------0---0---0-------0-------0-------0----|
|-------------------------------------------------------------------|
   Am
|-------------------------------------------------------------------|
|----------------------------------5--------------------------------|
|----------2-------4-------5---------------5-------4-------2--------|
|----2---2---2---2---2---2---2---2---2---2---2---2---2---2---2---2--|
|--0---0-------0-------0-------0-------0-------0-------0-------0----|
|-------------------------------------------------------------------|
   C                               Em
|-------------------------------------------------------------------|
|----------------------------------3-3-3-3-3-3-3-3-3-3-3-3-3--------|
|------5-----7-----7-----7---------4-4-4-4-4-4-4-4-4-4-4-4-4-5-4-5--|
|----5---5-----5-----5-----5---5---2-2-2-2-2-2-2-2-2-2-2-2-2-2-2-2--|
|--3-------3-----3-----3-----3---3----------------------------------|
|-------------------------------------------------------------------|
   Am
|-------------------------------------------------------------------|
|-------------------------------------------------------------------|
|----------2-------4-------5---------------5-------4-------2--------|
|----2---2---2---2---2---2---2---2---2---2---2---2---2---2---2---2--|
|--0---0-------0-------0-------0---0---0-------0-------0-------0----|
|-------------------------------------------------------------------|
   Am
|-------------------------------------------------------------------|
|----------------------------------5--------------------------------|
|----------2-------4-------5---------------5-------4-------2--------|
|----2---2---2---2---2---2---2---2---2---2---2---2---2---2---2---2--|
|--0---0-------0-------0-------0-------0-------0-------0-------0----|
|-------------------------------------------------------------------|
   C                               Em
|-------------------------------------------------------------------|
|----------------------------------3-3-3-3-3-3-3-3-3-3-3-3-3--------|
|------5-----7-----7-----7---------4-4-4-4-4-4-4-4-4-4-4-4-4-5-4-5--|
|----5---5-----5-----5-----5---5---2-2-2-2-2-2-2-2-2-2-2-2-2-2-2-2--|
|--3-------3-----3-----3-----3---3----------------------------------|
|-------------------------------------------------------------------|

CHORUS = Not really a chorus in this song, but I'll call it this. Just strum those.
   C    G    Am   Em F
|-----------------------|
|-----------------------|
|--5--------------------|
|--5----5----7----2--3--|
|--3----5----7----2--3--|
|-------3----5----0--1--|

BRIDGE
   Am              E7              F*              E
|------------------------------------------1---------------0--------|
|----------1---------------0-----------3-----3---3-----0-----0---0--|
|------2-----2---2-----1-----1---1---2---2-----2-----1---1-----1----|
|----2---2-----2-----0---0-----0---3---------------2----------------|
|--0---------------2------------------------------------------------|
|-------------------------------------------------------------------|
   Dm              C*              E7
|----------1--------------------------------------------------------|
|------3-----3---3---------1---------------0---------------0--------|
|----2---2-----2-------2-----2---2-----1-----1---1-----1-----1---1--|
|--0-----------------2---2-----2-----0---0-----0-----0---0-----0----|
|------------------3---------------2---------------2----------------|
|-------------------------------------------------------------------|
   Am              E7              F*              E
|------------------------------------------1---------------0--------|
|----------1---------------0-----------3-----3---3-----0-----0---0--|
|------2-----2---2-----1-----1---1---2---2-----2-----1---1-----1----|
|----2---2-----2-----0---0-----0---3---------------2----------------|
|--0---------------2------------------------------------------------|
|-------------------------------------------------------------------|
   Dm              C*              E7
|----------1--------------------------------------------------------|
|------3-----3---3---------1---------------0---------------0--------|
|----2---2-----2-------2-----2---2-----1-----1---1-----1-----1---1--|
|--0-----------------2---2-----2-----0---0-----0-----0---0-----0----|
|------------------3---------------2---------------2----------------|
|-------------------------------------------------------------------|
   Am              E7              F*              E
|------------------------------------------1---------------0--------|
|----------1---------------0-----------3-----3---3-----0-----0---0--|
|------2-----2---2-----1-----1---1---2---2-----2-----1---1-----1----|
|----2---2-----2-----0---0-----0---3---------------2----------------|
|--0---------------2------------------------------------------------|
|-------------------------------------------------------------------|
   Dm              C*              E7
|----------1--------------------------------------------------------|
|------3-----3---3---------1---------------0---------------0--------|
|----2---2-----2-------2-----2---2-----1-----1---1-----1-----1---1--|
|--0-----------------2---2-----2-----0---0-----0-----0---0-----0----|
|------------------3---------------2---------------2----------------|
|-------------------------------------------------------------------|

CHORUS
   C    G    Am   Em F
|-----------------------|
|-----------------------|
|--5--------------------|
|--5----5----7----2--3--|
|--3----5----7----2--3--|
|-------3----5----0--1--|

OUTRO = Just the verse riff ended with an Am
   Am
|-------------------------------------------------------------------|
|-------------------------------------------------------------------|
|----------2-------4-------5---------------5-------4-------2--------|
|----2---2---2---2---2---2---2---2---2---2---2---2---2---2---2---2--|
|--0---0-------0-------0-------0---0---0-------0-------0-------0----|
|-------------------------------------------------------------------|
   Am

Enjoy!!!and can't wait 'til Hypnotize!!!
comments
print report bad tab
35 comments total. Showing first comments.
0 reply
carlsbad wrote on May 25 2005, 12:00 am

dude.....i love you,lol

0 reply
allanon88 wrote on May 25 2005, 12:00 am

mmm thats good tabbing

0 reply
lyingfromyou118 wrote on May 25 2005, 12:00 am

Dude, awesome, thank you for your time and effort. The tuning changes are a bit confusing, but great nonetheless, 5 stars.

I want to post or [tab]
guest
You may want to rate the tab now too:
select rating
Please do not post tabs as comments. Select "correction" instead!