Oops, an error
Loading. Please wait.

Revenga Tab

ver6
ver6
More versions @911Tabs.com
32,677 views 54 this week
22 commentsread comments
1 2 3 4 5
excellent!
x 20
Autoscroll
+/-
esc
set tempo
stop
Contributor
Difficulty
Tuning
intermediate
D A D G B E
WARNING: You are trying to view
                                    content from Ultimate-Guitar.com
                                    in an unauthorized application,
                                    which is prohibited.

                                    Please use an official Ultimate
                                    Guitar Tabs application for iPhone,
                                    iPad or Android to access legitimate
                                    chords, guitar, bass, and drum tabs
                                    from Ultimate-Guitar.com database.

                                    Type "ultimate guitar tabs" in Apple
                                    App Store's or Android Market's
                                    search to find the application.
    ____________________
   / System of a Down  /  I think this song is about this guy being dumped by the
  / Revenga           /  love of his life and how he gets so furious that he gets
 / Mezmerize         /  murderous thoughts about her. It could also be interpret
/___________________/  with a perverse twist. ‘Bleeding in a sink’ and ‘the taking
                      is in the making baby’ could hint at the poor guy made his
now former girlfriend in his rage and eager for revenge. I think he would do it to
leave his signs at her, like showing her that he had actually meant something in
her life.



Tunings: Db Ab Db Gb Bb Eb
         C# G# C# F# A# D#
Gtr I - Clean
Gtr II, III - Distorted
Gtr IV - Distorted /w Tremolo effect equal to 16th parts
 (I'm not sure wether Daron actually use the pedal or not, as he has with
  the years become skilled enough to actually play this riff without.)



 Intro:
 4/4
 Q=140 bpm
 Gtr I
  Dbm                                    Absus4/Db
  W                 +W                   W                  +W
|-----------------|-------------------|------------------|--------------------|
|-6---------------|-(6)---------------|-10---------------|-(10)---------------|
|-7---------------|-(7)---------------|--9---------------|--(9)---------------|
|-0---------------|-(0)---------------|--0---------------|--(0)---------------|
|-0---------------|-(0)---------------|------------------|--------------------|
|-0---------------|-(0)---------------|------------------|--------------------|


   Amaj7/Db                                 G/Db
   W                  +H         Q    Q     W                 +H.            Q
|------------------|----------------------|-----------------|---------------------|
|-11---------------|-(11)-------11---10---|-9---------------|-(9)-----------------|
|-10---------------|-(10)-------10----9---|-8---------------|-(8)-----------------|
|--0---------------|--(0)--------0----0---|-0---------------|-(0)-----------------|
|--0---------------|--(0)-----------------|-----------------|----------------*----|
|--0---------------|--(0)-----------------|-----------------|---------------12\---|
                                                            *the distorted guitars
                                                             do this slide as well



 Main Riff:
 Gtr II, III
    Db5                               Db5             Ab5
    PM----------------------------------------|
    E   S S E   S S E   S S E   S S   E   S S E   E   E   E   E   +E
||----------------------------------|------------------------------------|
||o---------------------------------|------------------------------------|
||----------------------------------|------------------------------------|
||----------------------------------|-----------------8---8---8---(8)\---|
||o-0---0-0-0---0-0-0---0-0-0---0-0-|-0---0-0-0---0---8---8---8---(8)\---|
||--0---0-0-0---0-0-0---0-0-0---0-0-|-0---0-0-0---0---8---8---8---(8)\---|


  PM--------------------|
  Db5                               A AbGb  A AbGb  A AbGb  A AbGb
  E   S S E   S S E   S S E   E     S S E   S S E   S S E   S S E    2x
|---------------------------------|----------------------------------||
|---------------------------------|---------------------------------o||
|---------------------------------|----------------------------------||
|---------------------------------|----------------------------------||
|-0---0-0-0---0-0-0---0-0-0---0---|---------------------------------o||
|-0---0-0-0---0-0-0---0-0-0---0---|-8-7-5---8-7-5---8-7-5---8-7-5----||




 1st Verse:
    Db                                Db                       C5
    PM------------------------------------------------------|
    S S S S E   S S S S E   S S S S   E   S S S S E   S S S S  Q
||----------------------------------|---------------------------------|
||o---------------------------------|---------------------------------|
||----------------------------------|---------------------------------|
||----------------------------------|-------------------------11------|
||o---------------------------------|-------------------------11------|
||--0-0-0-0-0---0-0-0-0-0---0-0-0-0-|-0---0-0-0-0-0---0-0-0-0-11------|
...poisoning a drink, bleeding in a sink...


                                   1.
  Db                                 C5       Db5      C5  A5  Ab5
  PM----------------------------|
  S S S S E   S S S S E   S S S S    Q        Q        E   E   Q
|---------------------------------|-------------------------------------||
|---------------------------------|------------------------------------o||
|---------------------------------|-------------------------------------||
|---------------------------------|-11-------12-------11---8---7--------||
|---------------------------------|-11-------12-------11---8---7-------o||
|-0-0-0-0-0---0-0-0-0-0---0-0-0-0-|-11-------12-------11---8---7--------||


 2.
   C5       Db5      Eb5      E5
   Q        Q        Q        Q
|-------------------------------------||
|-------------------------------------||
|-------------------------------------||
|-11-------12-------14-------15-------||
|-11-------12-------14-------15-------||
|-11-------12-------14-------15-------||




 Chorus:
    Db5                               Db5
            PM------------------|             PM------------------|
    Q       E   E   E   E   E   E     Q       E   E   E   E   E   E
||----------------------------------|---------------------------------|
||o---------------------------------|---------------------------------|
||----------------------------------|---------------------------------|
||--0-------------------------------|-0-------------------------------|
||o-0-------0---0---0---0---0---0---|-0-------0---0---0---0---0---0---|
||--0-------0---0---0---0---0---0---|-0-------0---0---0---0---0---0---|


  Ab5                               Ab5
          PM------------------|             PM------------------|
  Q       E   E   E   E   E   E     Q       E   E   E   E   E   E
|---------------------------------|---------------------------------|
|---------------------------------|---------------------------------|
|---------------------------------|---------------------------------|
|-7-------------------------------|-7-------------------------------|
|-7-------7---7---7---7---7---7---|-7-------7---7---7---7---7---7---|
|-7-------7---7---7---7---7---7---|-7-------7---7---7---7---7---7---|


  A5                                A5
          PM------------------|             PM--|
  Q       E   E   E   E   E   E     Q       E   E   Q       Q
|---------------------------------|---------------------------------|
|---------------------------------|---------------------------------|
|---------------------------------|---------------------------------|
|-8-------------------------------|-8---------------8-------7-------|
|-8-------8---8---8---8---8---8---|-8-------8---8---8-------7-------|
|-8-------8---8---8---8---8---8---|-8-------8---8---8-------7-------|


                                   1.
  G5                                E5
          PM------------------|             PM------------------|
  Q       E   E   E   E   E   E     Q       E   E   E   E   E   E
|---------------------------------|----------------------------------||
|---------------------------------|---------------------------------o||
|---------------------------------|----------------------------------||
|-6-------------------------------|-3--------------------------------||
|-6-------6---6---6---6---6---6---|-3-------3---3---3---3---3---3---o||
|-6-------6---6---6---6---6---6---|-3-------3---3---3---3---3---3----||


 2.
  E5                       Db5
          PM----------|
  Q       E   E   E   E    Q
|-----------------------------------||
|-----------------------------------||
|-----------------------------------||
|-3---------------------------------||
|-3-------3---3---3---3---12\-------||
|-3-------3---3---3---3---12\-------||




 2nd Verse:
similar to 1st Verse




 Chorus:
similar to previous




 Main Riff:
similar to previous




 Interlude: x2
similar to Intro, just forget the slide 1st time




 Solo:
 Gtr IV
  Dbmmaj7                               Emmaj7
  Q   Q   Q   Q      Q    Q   Q   Q     Q    Q    Q    Q      Q    Q   Q    Q
|-----------------|-------------------|--------------------|--------------------|
|-----------------|-------------------|--------------------|--------------------|
|-----7-----------|-------------------|-----10-------------|--------------------|
|---------7-------|-------------------|----------10--------|--------------------|
|-5-----------8---|--5----4---5---7---|-8-------------11---|--8----7---8---10---|
|-----------------|-------------------|--------------------|--------------------|
|
|Gtr II, III
| Db5                Db5      Gb5       E5                    E5
| W                 +H        H         W                    +H        H
|-----------------|-------------------|--------------------|--------------------|
|-----------------|-------------------|--------------------|--------------------|
|-----------------|-------------------|--------------------|--------------------|
|-0---------------|-(0)-------5-------|-3------------------|-(3)-------3--------|
|-0---------------|-(0)-------5-------|-3------------------|-(3)-------3--------|
|-0---------------|-(0)-------5-------|-3------------------|-(3)-------3--------|


  Dmmaj7                              Dbmmaj7
  Q   Q   Q   Q     Q   Q   Q   Q     Q   Q   Q   Q     Q   Q   Q   Q
|-----------------|-----------------|-----------------|-----------------|
|-----------------|-----------------|-----------------|-----------------|
|-----8-----------|-----------------|-----7-----------|-----------------|
|---------8-------|-----------------|---------7-------|-----------------|
|-6-----------9---|-6---5---6---8---|-5-----------8---|-5---4---5---7---|
|-----------------|-----------------|-----------------|-----------------|
|
| D5                D5                Db5               Db5
| W                 W                 W                 W
|-----------------|-----------------|-----------------|-----------------|
|-----------------|-----------------|-----------------|-----------------|
|-----------------|-----------------|-----------------|-----------------|
|-1---------------|-1---------------|-0---------------|-0---------------|
|-1---------------|-1---------------|-0---------------|-0---------------|
|-1---------------|-1---------------|-0---------------|-0---------------|




 Chorus:
similar to previous



 Outro:
first repeat of a Verse, Main Riff, end on:

 Gtr II, III
  Db5
  W
|-----------------|
|-----------------|
|-----------------|
|-0---------------|
|-0---------------|
|-0---------------|



  Poisoning a drink
  Bleeding in a sink
  Choking with a link
  Killing with a stink
  Just your mother's ho

  Bleeding in a sink
  Poisoning a drink
  Burning up
  My sweet Clementine

  Trampling a shrink
  Bleeding in a sink
  Hallelujah wink
  Getting on the brink
  Just your mother's ho

  Hallelujah wink
  Murdering a shrink
  Burning up

  My sweet revenge
  Will be yours for the taking
  It's in the making baby

  Killing with a stink
  Bleeding in a sink
  Poisoning a drink
  Getting on the brink
  Just your mother's ho

  Bleeding in a sink
  Trampling a shrink
  Burning up
  My sweet Clementine

  Poisoning a drink
  Bleeding in a sink
  Choking with a link
  Killing with a stink
  Just your mother's ho

  Poisoning a drink
  Bleeding in a sink
  Burning up

  I saw her laugh
  Then she said "Go away"

  My sweet revenge
  Will be yours it's in the making
  It's in the taking, making, baking, taking, faking

  Should've been, could've been
  Would've been've, would've been you
  Should've been, could've been
  Would've been, would've been you


- 22nd /January /06
Just mail me at Maitinin@gmail.com with questions, comment and corrections!
22 comments total. Showing first comments.
-1 reply
pHaKe wrote on February 24 2006, 04:57 pm

wtf, no. this isn't close

+1 reply
masterskill wrote on March 13 2006, 12:21 am

Check your playing.

Sounds perfect to me.

+1 reply
masterskill wrote on April 10 2006, 05:42 pm

On second thought, after listening through the song a bit more, i found instead of doing what you have written for the Main Riff, Daron plays.


|-3-| |-3-| |-3-| |-3-| |-3-|
e S S S e S S S e S S S e S S S e S S S E E E E Q
|---------------------------------|----------------------|
|---------------------------------|----------------------|
|---------------------------------|----------------------|
|---------------------------------|-------------8-8-8----|
|-0-0-0-0-0-0-0-0-0-0-0-0-0-0-0-0-|-0-0-0-0-0-0-8-8-8----|
|-0-0-0-0-0-0-0-0-0-0-0-0-0-0-0-0-|-0-0-0-0-0-0-8-8-8----|


|-3-| |-3-| |-3-|
e S S S e S S S e S S S E E S S E S S E S S E S S E
|-----------------------------|--------------------------|
|-----------------------------|--------------------------|
|-----------------------------|--------------------------|
|-----------------------------|--------------------------|
|-0-0-0-0-0-0-0-0-0-0-0-0-0-0-|-8-7-5-8-7-5-8-7-5-8-7-5--|
|-0-0-0-0-0-0-0-0-0-0-0-0-0-0-|-8-7-5-8-7-5-8-7-5-8-7-5--|

Or something along those lines. I'm pretty sure what you have written as S S is actually.
|-3-|
S S S

I want to post or [tab]
guest
You may want to rate the tab now too:
select rating
Please do not post tabs as comments. Select "correction" instead!