Oops, an error
Loading. Please wait.

Steal This Album Tab

ver1
ver1

Album

More versions @911Tabs.com
39,294 views 60 this week
16 commentsread comments
1 2 3 4 5
accurate
x 23
add to favorites launch autoscroll
font size
0
reset
Autoscroll
+/-
esc
set tempo
stop
WARNING: You are trying to view
                                    content from Ultimate-Guitar.com
                                    in an unauthorized application,
                                    which is prohibited.

                                    Please use an official Ultimate
                                    Guitar Tabs application for iPhone,
                                    iPad or Android to access legitimate
                                    chords, guitar, bass, and drum tabs
                                    from Ultimate-Guitar.com database.

                                    Type "ultimate guitar tabs" in Apple
                                    App Store's or Android Market's
                                    search to find the application.
 Artist: system of a down
 Title:  Steal This Album! FULL
 Author: Alex Schopf

Everything is to 100% right!
So I had a lot fun by tabing this album......
you should also have!


1. Chic'n'Stu



A
1:-9--9--9--9-|
2:-8--8--8--8-|
3:------------|
4:------------|
5:------------|
6:------------|


B
       pm.........
1:-----------------|
2:-----------------|
3:-6-7-6-7-6-7-6-7-|
4:-6-7-6-7-6-7-6-7-|
5:-4-5-4-5-4-5-4-5-|
6:-----------------|


C

      pm.........................
1:--------------------------------|
2:--------------------------------|
3:-6--6-7-9-7--6-7-9-7--6-7-9-7-6-|
4:-6------------------------------|
5:-4------------------------------|
6:--------------------------------|


D(staccato played)
1:------------------------------|
2:------------------------------|
3:-6--6-7-6--6-7-6--6-7-6-7-6-7-|
4:-6--6-7-6--6-7-6--6-7-6-7-6-7-|
5:-4--4-5-4--4-5-4--4-5-4-5-4-5-|
6:------------------------------|


E(normal played)
1:------------------------------|
2:------------------------------|
3:-6--6-7-6--6-7-6--6-7-6-7-6-7-|
4:-6--6-7-6--6-7-6--6-7-6-7-6-7-|
5:-4--4-5-4--4-5-4--4-5-4-5-4-5-|
6:------------------------------|


F
1:-9---9---9---9---|
2:---8---8---8---8-|
3:-----------------|
4:-----------------|
5:-----------------|
6:-----------------|


G
          (staccato)                             (staccato)
1:-------|------------------------------|-------|------------------------------|
2:-------|------------------------------|-------|------------------------------|
3:-----7-|-6--6-7-6--6-7-6--6-7-6-7-6-7-|-----7-|-6--6-7-6--6-7-6--6-7-6-7-6-7-|
4:---5---|-6--6-7-6--6-7-6--6-7-6-7-6-7-|---5---|-6--6-7-6--6-7-6--6-7-6-7-6-7-|
5:-6-----|-4--4-5-4--4-5-4--4-5-4-5-4-5-|-6-----|-4--4-5-4--4-5-4--4-5-4-5-4-5-|
6:-------|------------------------------|-------|------------------------------|

1:-------|-------|-------|-------|-------|-------|---------------------------------|
2:-------|-------|-------|-------|-------|-------|---------------------------------|
3:-----7-|-----7-|-----5-|-----7-|-----5-|-----7-|-7-8-7-8-7-8-7-8-7-8-7-8-7-8-7-8-|
4:---5---|---5---|---3---|---5---|---3---|---5---|---------------------------------|
5:-6-----|-6-----|-4-----|-6-----|-4-----|-6-----|---------------------------------|
6:-------|-------|-------|-------|-------|-------|---------------------------------|


H
1:---|
2:---|
3:-6-|
4:-6-|
5:-4-|
6:---|


ORDER:
=====

A 8x
B 8x
C 2x
D 2x
E 2x
A 2x
F 2x
B 8x
C 2x
D 2x
E 4x
G
B 8x
C 2x
D 2x
E 2x
D 2x
H





2. Innervision



A
1:------------|
2:------------|
3:------------|
4:-1---1--1---|
5:-1---1--1---|
6:-1---1--1---|


B
pm......................
1:-----------------------|
2:-----------------------|
3:-----------------------|
4:-----------------------|
5:-----------------------|
6:-000-555-333-111-33-11-|


C
pm......................
1:-----------------------|
2:-----------------------|
3:-----------------------|
4:-----------------------|
5:-----------------------|
6:-000-555-777-333-77-55-|


D
1:---------------|
2:-----3-------3-|
3:---0-------0---|
4:-1-------1-----|
5:---------------|
6:---------------|


E
1:-------------------|
2:-------------------|
3:-------------------|
4:-0--5--7--3--7-7-5-|
5:-0--5--7--3--7-7-5-|
6:-0--5--7--3--7-7-5-|


F
1:------------------------------------------|
2:------------------------------------------|
3:------------------------------------------|
4:-1---1---1---1---1--1---1-1-1-1--11111111-|
5:-1---1---1---1---1--1---1-1-1-1--11111111-|
6:-1---1---1---1---1--1---1-1-1-1--11111111-|


G
1:-6-6-6-6-6-6-6-6-|-5-5-5-5-5-5-5-5-|-6-6-6-6-6-6-6-6-|-5-5-5-5-5-5-5-5-|
2:-4-4-4-4-4-4-4-4-|-4-4-4-4-4-4-4-4-|-4-4-4-4-4-4-4-4-|-4-4-4-4-4-4-4-4-|
3:-3-3-3-3-3-3-3-3-|-2-2-2-2-2-2-2-2-|-3-3-3-3-3-3-3-3-|-2-2-2-2-2-2-2-2-|
4:-----------------|-----------------|-----------------|-----------------|
5:-----------------|-----------------|-----------------|-----------------|
6:-----------------|-----------------|-----------------|-----------------|


H
1:-6-6-6-6-6-6-6-6-|-5-5-5-5-5-5-5-5-|-6-6-6-6-6-6-6-6-|-5-5-5-5-5-5-5-5-|
2:-3-3-3-3-3-3-3-3-|-3-3-3-3-3-3-3-3-|-3-3-3-3-3-3-3-3-|-3-3-3-3-3-3-3-3-|
3:-3-3-3-3-3-3-3-3-|-2-2-2-2-2-2-2-2-|-3-3-3-3-3-3-3-3-|-3-3-3-3-3-3-3-3-|
4:-----------------|-----------------|-----------------|-----------------|
5:-----------------|-----------------|-----------------|-----------------|
6:-----------------|-----------------|-----------------|-----------------|


ORDER:
=====

A 4x
B 4x
C 2x
B 2x
C 2x
D
E 2x
A 2x
B 4x
C 2x
B 2x
C 2x
D
E 2x
A 2x
E 2x
A 2x
E 2x
F
E 2x
F
E 2x
F
E 2x
G, H, G, H, G, H, G
B 4x





3.Bubbles






A
pm........
1:---------|------------------------------------|------------------------------------|
2:---------|------------------------------------|------------------------------------|
3:---------|------------------------------------|------------------------------------|
4:-6-6-6-6-|-3-5-5-5--3-5-5-5--3-5-5-5--3-5-5-5-|-3-5-5-5--3-5-5-5--3-5-5-5--6-6-6-6-|
5:-6-6-6-6-|-3-5-5-5--3-5-5-5--3-5-5-5--3-5-5-5-|-3-5-5-5--3-5-5-5--3-5-5-5--6-6-6-6-|
6:-6-6-6-6-|-3-5-5-5--3-5-5-5--3-5-5-5--3-5-5-5-|-3-5-5-5--3-5-5-5--3-5-5-5--6-6-6-6-|
                                                                   pm.....
1:------------------------------------|------------------------------------|
2:------------------------------------|------------------------------------|
3:------------------------------------|------------------------------------|
4:-3-5-5-5--3-5-5-5--3-5-5-5--3-5-5-5-|-3-5-5-5--3-5-5-5--3-5-5-5--6-6-6-6-|
5:-3-5-5-5--3-5-5-5--3-5-5-5--3-5-5-5-|-3-5-5-5--3-5-5-5--3-5-5-5--6-6-6-6-|
6:-3-5-5-5--3-5-5-5--3-5-5-5--3-5-5-5-|-3-5-5-5--3-5-5-5--3-5-5-5--6-6-6-6-|


B
pm.............................
1:------------------------------|
2:------------------------------|
3:------------------------------|
4:-3-5---5-3--5---3-5---5-6-6-6-|
5:-3-5---5-3--5---3-5---5-6-6-6-|
6:-3-5---5-3--5---3-5---5-6-6-6-|


C
1:-----------------------|---------------------------|
2:-----------------------|---------------------------|
3:-55-77-88-77-55-444444-|-55-77-88-77-1010-88-77-88-|
4:-----------------------|---------------------------|
5:-----------------------|---------------------------|
6:-----------------------|---------------------------|


D
1:------------------------------------|
2:------------------------------------|
3:------------------------------------|
4:-3-5-5-5--3-5-5-5--3-5-5-5--6-6-6-6-|
5:-3-5-5-5--3-5-5-5--3-5-5-5--6-6-6-6-|
6:-3-5-5-5--3-5-5-5--3-5-5-5--6-6-6-6-|


E
1:-----------------------------|
2:-----------------------------|
3:-----------------------------|
4:-----------------------------|
5:-----------------------------|
6:-3-5--5-3--5---3-5---5-6-6-6-|


F
1:---|
2:---|
3:---|
4:-5-|
5:-5-|
6:-5-|


G
1:------------|
2:------------|
3:------------|
4:------------|
5:------------|
6:-3-8--5-6-5-|


H
pm..........................
1:---------------------------|
2:---------------------------|
3:-55-77-88-77-1010-88-77-88-|
4:---------------------------|
5:---------------------------|
6:---------------------------|


I
1:-----------------------------|
2:-----------------------------|
3:-----------------------------|
4:-----------------------6-6-6-|
5:-----------------------6-6-6-|
6:-3-5--5-3--5---3-5---5-6-6-6-|



ORDER:
=====

A
B 2x
C 4x
D 2x
B 2x
C 6x
D 2x
B 2x
E 2x
F 4x
G 7x
H
G 7x
H
D 4x
B 2x
E
I





4.BOOM!






A
pm......................................................................
1:-----------------|-----------------|-----------------|-----------------|
2:-----------------|-----------------|-----------------|-----------------|
3:-----------------|-----------------|-----------------|-----------------|
4:---------7-------|---------7-------|---------6-------|---------6-------|
5:-5-7-8-7---8-7-8-|-5-7-8-7---8-7-8-|-4-6-7-6---7-6-7-|-4-6-7-6---7-6-7-|
6:-----------------|-----------------|-----------------|-----------------|

pm....................................................................................
1:------------------------|------------------------|-----------------|-----------------|
2:------------------------|------------------------|-----------------|-----------------|
3:------------------------|------------------------|-----------------|-----------------|
4:------------10----------|------------10----------|---------8-------|---------8-------|
5:-8-10-11-10----11-10-11-|-8-10-11-10----11-10-11-|-6-8-9-8---9-8-9-|-6-8-9-8---9-8-9-|
6:------------------------|------------------------|-----------------|-----------------|

pm    .    .     .   .      .    .     .   .      .    .     .   .      .    .     .   .
1:-----------|---------|-----------|---------|-----------|---------|-----------|---------|
2:-10---10---|-9---9---|-10---10---|-9---9---|-10---10---|-9---9---|-10---10---|-9---9---|
3:----7----7-|---7---7-|----7----7-|---7---7-|----7----7-|---7---7-|----7----7-|---7---7-|
4:-----------|---------|-----------|---------|-----------|---------|-----------|---------|
5:-----------|---------|-----------|---------|-----------|---------|-----------|---------|
6:-----------|---------|-----------|---------|-----------|---------|-----------|---------|


1:----------7-8--------|---------7-8--------|---------7-8--------|---------7-8------|
2:--10-9-10------------|-10-9-10------------|-10-9-10------------|-10-9-10----------|
3:--------------10-9-7-|-------------10-9-7-|-------------10-9-7-|-------------10-9-|
4:---------------------|--------------------|--------------------|------------------|
5:---------------------|--------------------|--------------------|------------------|
6:---------------------|--------------------|--------------------|------------------|


B
1:---------------|-----------------------------------------------|---------------|
2:---------------|-----------------------------------------------|---------------|
3:---------------|-----------------------------------------------|---------------|
4:-0---0---0---0-|-8--8--7--7--8--8--7--7--8--8--7--7--8--8--7\--|-0---0---0---0-|
5:-0---0---0---0-|-6--6--5--5--6--6--5--5--6--6--5--5--6--6--5\--|-0---0---0---0-|
6:-0---0---0---0-|-----------------------------------------------|-0---0---0---0-|


C
pm....................
1:---------------------|
2:---------------------|
3:---------------------|
4:-0--0--0--0--0--0--0-|
5:-0--0--0--0--0--0--0-|
6:-0--0--0--0--0--0--0-|


D
1:--------------------------------------------|
2:--------------------------------------------|
3:------9---8----9--11--12--------------------|
4:-0----7---6----7--9---10----3---2--2-2-2--2-|
5:-0----7---6----7--9---10----3---2--2-2-2--2-|
6:-0----7---6----7--9---10----3---2--2-2-2--2-|

1:-------------------------------------------|
2:-------------------------------------------|
3:------9---8----9--11--12-------------------|
4:-0----7---6----7--9---10----3---2--2--2--2-|
5:-0----7---6----7--9---10----3---2--2--2--2-|
6:-0----7---6----7--9---10----3---2--2--2--2-|


E
pm.......................
1:------------------------|---------------------|
2:------------------------|---------------------|
3:------------------------|---------------------|
4:-0--0--0--0--0--0--0--0-|-1--1--0--0--1--1--0-|
5:-0--0--0--0--0--0--0--0-|-1--1--0--0--1--1--0-|
6:-0--0--0--0--0--0--0--0-|-1--1--0--0--1--1--0-|


ORDER:
=====

Bass-Intro
A
B
A
B
C
D
B
E




5.Nueguns






A
1:-------------|
2:-------------|
3:-------------|
4:-7--8--10--8-|
5:-7--8--10--8-|
6:-7--8--10--8-|


B
3x:                              1x:
1:------------------------------|-------------|
2:------------------------------|-------------|
3:------------------------------|-------------|
4:------------------------------|-7--8--10--8-|
5:------------------------------|-7--8--10--8-|
6:-7-7-0-0-8-8-0-0-10-10-0-0-8--|-7--8--10--8-|


C
2x:                              1x:                                 1x:
1:------------------------------|-----------------------------------|-------------|
2:------------------------------|-----------------------------------|-------------|
3:------------------------------|-----------------------------------|-------------|
4:------------------------------|-----------------------------------|-7--8--10--8-|
5:------------------------------|-----------------------------------|-7--8--10--8-|
6:-7-0-8-0-10-0-8-0-7-0-8-0-10--|-7-0-8-0-10-0-8-0-7-0-8-0-10-0-8-0-|-7--8--10--8-|


D
1:---------10----10----|
2:------------10----10-|
3:-7---7---------------|
4:---7---7-------------|
5:---------------------|
6:---------------------|


E
1:------------------------------|
2:------------------------------|
3:-------7--7-7--7-7----7-7-7-7-|
4:------------------------------|
5:-6--6--------------6----------|
6:------------------------------|


F
1:------------------|
2:------------------|
3:------------------|
4:---------------h5-|
5:------h5----------|
6:-0-0------0-0-----|


G
1:--------------------------|
2:--------------------------|
3:--------------------------|
4:-0--0--0/12----0--0--12\0-|
5:-0--0--0/12----0--0--12\0-|
6:-0--0--0/12----0--0--12\0-|


H
1:-------------|
2:-------------|
3:-------------|
4:-------------|
5:-------------|
6:-7--8--10--8-|


I
3x:                                   1x:
1:-----------------------------------|-------------|
2:-----------------------------------|-------------|
3:-----------------------------------|-------------|
4:-----------------------------------|-7--8--10--8-|
5:-----------------------------------|-7--8--10--8-|
6:-7-0-8-0-10-0-8-0-7-0-8-0-10-0-8-0-|-7--8--10--8-|


J
                             pm.
1:--------10--------------10-----|
2:------------10-----------------|
3:-7---------------7-------------|
4:----7---------------7------0-0-|
5:---------------------------0-0-|
6:---------------------------0-0-|


ORDER:
=====

A 3x
B
C
D
E 3x
F 2x
E 3x
D
A
B
C
D
E 3x
F 2x
E 3x
D
A
B
C
D 2x
G 7x
H
G 3x
H
G 3x
A
B
C
B
I
D
J





6.ADD





A
1:-10--10-10-10-10--10-10b12-10-10--10-|-10-10--10-10-10-10--10-10b12-10-10-10-10-|
2:-------------------------------------|------------------------------------------|
3:-------------------------------------|------------------------------------------|
4:-------------------------------------|------------------------------------------|
5:-------------------------------------|------------------------------------------|
6:-------------------------------------|------------------------------------------|

1:-10-10b12-10-10-10-10-|-10-10b12-10-10-10-10-|-10-10b12-10-10-10-10-|-10-10b12--|
2:----------------------|----------------------|----------------------|-----------|
3:----------------------|----------------------|----------------------|-----------|
4:----------------------|----------------------|----------------------|-----------|
5:----------------------|----------------------|----------------------|-----------|
6:----------------------|----------------------|----------------------|-----------|


B
1:------------|------------|------------|----------------|
2:------------|------------|------------|----------------|
3:------------|------------|------------|----------------|
4:-7----------|-7----------|-7----------|-7--------5-7-8-|
5:-5----------|-5----------|-5----------|-5--------3-5-6-|
6:----0-0-0-0-|----0-0-0-0-|----0-0-0-0-|----0-0-0-------|


B'
      pm...        .....        .....        .....
1:------------|------------|------------|----------------|
2:------------|------------|------------|----------------|
3:------------|------------|------------|----------------|
4:-7--0-0-0-0-|-7--0-0-0-0-|-7--0-0-0-0-|-7--0-0-0-5-7-8-|
5:-5--0-0-0-0-|-5--0-0-0-0-|-5--0-0-0-0-|-5--0-0-0-3-5-6-|
6:----0-0-0-0-|----0-0-0-0-|----0-0-0-0-|----0-0-0-------|

      pm...        .....        .....        .....
1:------------|------------|------------|------------|
2:------------|------------|------------|------------|
3:------------|------------|------------|------------|
4:-7--0-0-0-0-|-7--0-0-0-0-|-7--0-0-0-0-|-7--0-0-0-0-|
5:-5--0-0-0-0-|-5--0-0-0-0-|-5--0-0-0-0-|-5--0-0-0-0-|
6:----0-0-0-0-|----0-0-0-0-|----0-0-0-0-|----0-0-0-0-|


C
1:-------------------------|-------------------------|------------------------------|
2:-------------------------|-------------------------|------------------------------|
3:-------------------------|-------------------------|------------------------------|
4:-1--1--1-1-1-7--7--7-7-7-|-0--0--0-0-0-6--6--6-6-6-|-11--11--11-11-11-5--5--5-5-5-|
5:-1--1--1-1-1-7--7--7-7-7-|-0--0--0-0-0-6--6--6-6-6-|-11--11--11-11-11-5--5--5-5-5-|
6:-1--1--1-1-1-7--7--7-7-7-|-0--0--0-0-0-6--6--6-6-6-|-11--11--11-11-11-5--5--5-5-5-|


D
4x:
pm................
1:-----------------|
2:-----------------|
3:-----------------|
4:-----------------|
5:-----------------|
6:-0-0-0-0-0-0-0-0-|


E
3x:                 1x:
pm............................
1:-----------------|-----------|
2:-----------------|-----------|
3:-----------------|-----------|
4:-----------------|-----------|
5:-----------------|-----------|
6:-0-0-0-0-0-0-0-0-|-0-0-0-0-0-|


F
1:-----------------|-----------------|-----------------|-----------------|
2:-6-6-6-6-6-6-6-6-|-6-6-6-6-6-6-6-6-|-6-6-4-4-4-4-4-4-|-4-4-4-4-4-4-4-4-|
3:-----------------|-----------------|-----------------|-----------------|
4:-3-3-3-3-3-3-3-3-|-3-3-3-3-3-3-3-3-|-3-3-2-2-2-2-2-2-|-2-2-2-2-2-2-2-2-|
5:-----------------|-----------------|-----------------|-----------------|
6:-----------------|-----------------|-----------------|-----------------|

1:-----------------|-----------------|-----------------|-----------------|
2:-8-8-8-8-8-8-8-8-|-8-8-8-8-8-8-8-8-|-8-8-6-6-6-6-6-6-|-6-6-6-6-6-6-6-6-|
3:-----------------|-----------------|-----------------|-----------------|
4:-5-5-5-5-5-5-5-5-|-5-5-5-5-5-5-5-5-|-5-5-3-3-3-3-3-3-|-3-3-3-3-3-3-3-3-|
5:-----------------|-----------------|-----------------|-----------------|
6:-----------------|-----------------|-----------------|-----------------|

1:-------------------------|-------------------------|-------------------|-----------------|
2:-10-10-10-10-10-10-10-10-|-10-10-10-10-10-10-10-10-|-10-10-8-8-8-8-8-8-|-8-8-8-8-8-8-8-8-|
3:-------------------------|-------------------------|-------------------|-----------------|
4:--7--7--7--7--7--7--7--7-|--7--7--7--7--7--7--7--7-|--7--7-5-5-5-5-5-5-|-5-5-5-5-5-5-5-5-|
5:-------------------------|-------------------------|-------------------|-----------------|
6:-------------------------|-------------------------|-------------------|-----------------|

1:-------------------------|-------------------------|-------------------------|---------|
2:-11-11-11-11-11-11-11-11-|-11-11-11-11-11-11-11-11-|-11-11-10-10-10-10-10-10-|-10------|
3:-------------------------|-------------------------|-------------------------|----(8x)-|
4:--8--8--8--8--8--8--8--8-|--8--8--8--8--8--8--8--8-|--8--8--7--7--7--7--7--7-|--7------|
5:-------------------------|-------------------------|-------------------------|---------|
6:-------------------------|-------------------------|-------------------------|---------|


G
6x:                  1x:
1:---------10b12r10-|-10--10-10--10-10-10-10--10-10-|
2:------------------|-------------------------------|
3:-7--7-7-----------|--7---7--7---7--7--7--7---7--7-|
4:------------------|-------------------------------|
5:------------------|-------------------------------|
6:------------------|-------------------------------|


H
       pm......       ........
1:--------------|--------------|
2:--------------|--------------|
3:--------------|--------------|
4:-----0--0-0-0-|-h5--0--0-0-0-|
5:-h5--0--0-0-0-|-----0--0-0-0-|
6:-----0--0-0-0-|-----0--0-0-0-|


I
4x:
1:--------|
2:--------|
3:--------|
4:-----h5-|
5:-h5-----|
6:--------|


J
       pm......      .
1:--------------|---------------|
2:--------------|---------------|
3:--------------|---------------|
4:-----0--0-0-0-|-7--0--5-7-8-7-|
5:-h5--0--0-0-0-|-5--0--3-5-6-5-|
6:-----0--0-0-0-|----0----------|


ORDER:
=====

A
B 2x
B'
C
D
E
F
G
C
H
C
D
F
G
C
H
C
H
I
B 2x
B'
F
G
C
H
C
H 3x
J




7.MR.JACK

(I'am always using the Marshall Jackhammer at this song *lol*)





A(maybe this is only played by bass)
1:----------------------------|------------------------|
2:----------------------------|------------------------|
3:----------------------------|------------------------|
4:----------------------------|------------------------|
5:----8\7--7\5---5-----5-6--5-|----3--3---5-----5--6-5-|
6:-0----------------0---------|-0------------0---------|


A'(maybe this is only played by bass)
1:----------------------------|--------------|
2:----------------------------|--------------|
3:----------------------------|--------------|
4:----------------------------|--------------|
5:----8\7--7\5---5-----5-6--5-|----3--3---5--|
6:-0----------------0---------|-0------------|


B
1:-3^2-2-2-2---22-2--2-22-|-5-5-5---55-5--5-55-|-7-7-7---77-7--7-77-|-10-101010--1012-12-12-1010\
2:-----3-3-3---33-3--3-33-|-6-6-6---66-6--6-66-|-8-8-8---88-8--8-88-|-11-111111--1111-11-11-1111\
3:-----2-2-2---22-2--2-22-|-5-5-5---55-5--5-55-|-7-7-7---77-7--7-77-|-10-101010--1010-10-10-1010\
4:-----0-0-0---00-0--0-00-|-0-0-0---00-0--0-00-|-0-0-0---00-0--0-00-|--0--0-0-0---0-0--0--0--0-0\
5:------------------------|--------------------|--------------------|----------------------------
6:------------------------|--------------------|--------------------|----------------------------

1:-2-2-2---22-2--2-22-|-5-5-5---55-5--5-55-|-7-7-7---77-7--7-77-|-10-101010--10-12--|
2:-3-3-3---33-3--3-33-|-6-6-6---66-6--6-66-|-8-8-8---88-8--8-88-|-11-111111--11-11--|
3:-2-2-2---22-2--2-22-|-5-5-5---55-5--5-55-|-7-7-7---77-7--7-77-|-10-101010--10-10--|
4:-0-0-0---00-0--0-00-|-0-0-0---00-0--0-00-|-0-0-0---00-0--0-00-|--0--0-0-0---0--0--|
5:--------------------|--------------------|--------------------|-------------------|
6:--------------------|--------------------|--------------------|-------------------|


C
1:---------------------|---------------------|
2:---------------------|---------------------|
3:---------------------|---------------------|
4:-0---7---3---8-7-8-7-|-0---7---3---8-7-8-8-|
5:-0---7---3---8-7-8-7-|-0---7---3---8-7-8-8-|
6:-0---7---3---8-7-8-7-|-0---7---3---8-7-8-8-|


D
pm..................................................
1:---------------------------|-----------------------|
2:---------------------------|-----------------------|
3:---------------------------|-----------------------|
4:-0---0-7---7-3---3-8-7-8-7-|-0---7---7-3---3-8-7-8-|
5:-0---0-7---7-3---3-8-7-8-7-|-0---7---7-3---3-8-7-8-|
6:-0---0-7---7-3---3-8-7-8-7-|-0---7---7-3---3-8-7-8-|
pm.............................................
1:-----------------------|---------------------|
2:-----------------------|---------------------|
3:-----------------------|---------------------|
4:-0---7---3---3-8-7-8-7-|-0---7---3---3-8-7-8-|
5:-0---7---3---3-8-7-8-7-|-0---7---3---3-8-7-8-|
6:-0---7---3---3-8-7-8-7-|-0---7---3---3-8-7-8-|

E
pm.........................................
1:---------------------|-------------------|
2:---------------------|-------------------|
3:---------------------|-------------------|
4:-0---7---3---8-7-8-7-|-0---7---3---8-7-8-|
5:-0---7---3---8-7-8-7-|-0---7---3---8-7-8-|
6:-0---7---3---8-7-8-7-|-0---7---3---8-7-8-|

F
pm................................
1:---------------------|---------------------|
2:---------------------|---------------------|
3:---------------------|---------------------|
4:-0---7---3---8-7-8-7-|-0---7---3---8-7-8-8-|
5:-0---7---3---8-7-8-7-|-0---7---3---8-7-8-8-|
6:-0---7---3---8-7-8-7-|-0---7---3---8-7-8-8-|


G(with chorus; between the chords a 2nd guitar plays in the 7th fret on the 4th string)
1:----13/12--12---10---10--11-10----8--8---10--10--10-|
2:----------------------------------------------------|
3:----10/9---9----7----7---8--7-----5--5---7---7---7--|
4:----------------------------------------------------|
5:----------------------------------------------------|
6:-0--------------------------------------------------|


H(with chorus; between the chords a 2nd guitar plays in the 7th fret on the 4th string)
1:----13/12--12---10---10--11-10----8--8---101010101010101010-|
2:------------------------------------------------------------|
3:----10/9---9----7----7---8--7-----5--5---7-7-7-7-7-7-7-7-7--|
4:------------------------------------------------------------|
5:------------------------------------------------------------|
6:-0----------------------------------------------------------|


I
7x:                      1x:
1:----------------------|-----------------|
2:----------------------|-----------------|
3:----------------------|-----------------|
4:-0-0--7-7--3-3--8-7-8-|-0-0--7-7--3---8-|
5:-0-0--7-7--3-3--8-7-8-|-0-0--7-7--3---8-|
6:-0-0--7-7--3-3--8-7-8-|-0-0--7-7--3---8-|


J
pm............
1:----------------------|
2:----------------------|
3:----------------------|
4:-0-0-0-0-0-0----------|
5:-0-0-0-0-0-0----------|
6:-0-0-0-0-0-0--000-000-|


K
   pm...      .....
1:---------------------|
2:---------------------|
3:---------------------|
4:-0-0-0-7--7-3-3-3-8--|
5:-0-0-0-7--7-3-3-3-8--|
6:-0-0-0-7--7-3-3-3-8--|


L
1:-----------------|
2:-----------------|
3:-----------------|
4:-0---7---3-3-3-8-|
5:-0---7---3-3-3-8-|
6:-0---7---3-3-3-8-|


ORDER:
=====

A 4x

A, A, A, A' (plus B 1x)

C 4x
D
E
F
C 2x
E 3x
F
C 4x
G 5x
H
I
J 8x
K 3x
L 4x
K







8.I-E-A-I-A-I-O





A
1:-16----13^16----13^16----13^16----13^16----13^16----|
2:----15-------15-------15-------15-------15-------15-|
3:----------------------------------------------------|
4:----------------------------------------------------|
5:----------------------------------------------------|
6:----------------------------------------------------|

1:-16----13^16----13^16----13^16----13^16----13^16-|
2:----15-------15-------15-------15-------15-------|
3:-------------------------------------------------|
4:-------------------------------------------------|
5:-------------------------------------------------|
6:-------------------------------------------------|

1:16----13^16----13^16----13^16----13^|16----13^16----13^16----13^16----13^|
2:---15-------15-------15-------15----|---15-------15-------15-------15----|
3:------------------------------------|------------------------------------|
4:------------------------------------|------------------------------------|
5:------------------------------------|------------------------------------|
6:------------------------------------|------------------------------------|

1:16----13^16----13^16----13^16----13^|16----13^16----13^16-|
2:---15-------15-------15-------15----|---15-------15-------|
3:------------------------------------|---------------------|
4:------------------------------------|---------------------|
5:------------------------------------|---------------------|
6:------------------------------------|---------------------|


B
1:----------------|
2:----------------|
3:----------------|
4:-1^0--0--1^0--0-|
5:-1^0--0--1^0--0-|
6:-1^0--0--1^0--0-|


C
7x:                 1x:
pm............................
1:-----------------|------------|
2:-----------------|------------|
3:-----------------|------------|
4:-1-0-0-0-0-0-0-0-|-1-0-0-0-0--|
5:-1-0-0-0-0-0-0-0-|-1-0-0-0-0--|
6:-1-0-0-0-0-0-0-0-|-1-0-0-0-0--|



D
4x:
1:------------------|
2:------------------|
3:-7-5-7-5----------|
4:------------------|
5:----------5-3-5-3-|
6:------------------|


D'
4x:
1:--------------------|
2:--------------------|
3:-10-9-10-9----------|
4:--------------------|
5:------------8-7-8-7-|
6:--------------------|


E
pm..............................................................
1:---------------------------------|------------------------------|
2:---------------------------------|------------------------------|
3:---------------------------------|------------------------------|
4:---------------------------------|------------------------------|
5:---------------------------------|------------------------------|
6:-0-0-0-0-0-0-3-3-2-2-0-0-0-0-0-0-|-5-5-5-5-5-5-3-3-2-2-0--0--0--|

pm.......................................................
1:-----------------------------|--------------------------|
2:-----------------------------|--------------------------|
3:-----------------------------|--------------------------|
4:-----------------------------|--------------------------|
5:-----------------------------|--------------------------|
6:-0-0-0-0-3-3-2-2-0-0-0-0-0-0-|-5-5-5-5-5-5-3-3-2-2-0--0-|


F
    pm.........................      ..........................
1:------------------------------|------------------------------|
2:------------------------------|------------------------------|
3:------------------------------|------------------------------|
4:-3----------------------------|-5----------------------------|
5:-3----------------------------|-5----------------------------|
6:-3--0-0-0-0--0-0-0-0--0-0-0-0-|-5--0-0-0-0--0-0-0-0--0-0-0-0-|

    pm.........................      ..........................
1:------------------------------|------------------------------|
2:------------------------------|------------------------------|
3:------------------------------|------------------------------|
4:-3----------------------------|-5----------------------------|
5:-3----------------------------|-5----------------------------|
6:-3--0-0-0-0--0-0-0-0--0-0-0-0-|-5--0-0-0-0--0-0-0-0--0-0-0-0-|


G
   pm....       ..            Pm......
1:------------------------------------------------|
2:--------10----10-11-10---------------10--8------|
3:-7--8-7----------------7----7--8-7-7------------|
4:----------------------------------------------0-|
5:------------------------------------------------|
6:------------------------------------------------|

   pm....       ..            Pm......
1:------------------------------------------------------------------|
2:--------10----10-11-10---------------10--11---11-11-11-11-11b..13-|
3:-7--8-7----------------7----7--8-7-7------------------------------|
4:------------------------------------------------------------------|
5:------------------------------------------------------------------|
6:------------------------------------------------------------------|


H
4x:                               3x:                             1x:
pm..............................
1:-------------------------------|-------------------------------|--------------------------|
2:-------------------------------|-7--8-7--8-7---8-7---5-5-7-7-7-|-7--8-7--8-7---8-7---5-5--|
3:-7--8-7--8-7---8-7---5-5-7-7-7-|-7--8-7--8-7---8-7---5-5-7-7-7-|-7--8-7--8-7---8-7---5-5--|
4:-------------------------------|-------------------------------|--------------------------|
5:-------------------------------|-------------------------------|--------------------------|
6:-------------------------------|-------------------------------|--------------------------|


I
2x:
1:--------------------------|
2:--------------------------|
3:--------------------------|
4:-0---3-2--0----5---3-2--0-|
5:-0---3-2--0----5---3-2--0-|
6:-0---3-2--0----5---3-2--0-|


ORDER:
=====

A
B 4x
C
D
B 2x
D
B 2x
D'
B 2x
D
B 2x
E
B 4x
D
B 2x
D
B 2x
D'
B 2x
D
B 2x
E
B 4x
F
B 4x
G
H
I
B 4x
F
B 4x





9.36

(some kind of destructiv song, isn't it?)




A
1:----0-----0-----0-----0-|----0-----0-----0------|
2:-0-----3-----2-----4----|-0-----3-----2-----2/6-|
3:------------------------|-----------------------|
4:------------------------|-----------------------|
5:------------------------|-----------------------|
6:------------------------|-----------------------|


B
1:-------------------------|
2:-------------------------|
3:-------------------------|
4:-------------------------|
5:-6^5^0-6^5^0-6^5^0-6^5^0-|
6:-6^5^0-6^5^0-6^5^0-6^5^0-|


C
1:-0-0--0-0--0-0--0-0-|-0-0--0-0--0-0--0-0-|-0-0--0-0--0-0--0-0-|-0-0--0-0--0-0--0---|
2:-0-0--3-3--2-2--4-4-|-0-0--3-3--2-2--6-6-|-0-0--3-3--2-2--4-4-|-0-0--3-3--2-2--2/6-|
3:--------------------|--------------------|--------------------|--------------------|
4:--------------------|--------------------|--------------------|--------------------|
5:--------------------|--------------------|--------------------|--------------------|
6:--------------------|--------------------|--------------------|--------------------|


D
1:-0-0--0-0--0-0--0-0-|
2:-0-0--3-3--2-2--4-4-|
3:--------------------|
4:--------------------|
5:--------------------|
6:--------------------|


E
1:-0-0--0-0--0-0--0---|
2:-0-0--3-3--2-2--2/6-|
3:--------------------|
4:--------------------|
5:--------------------|
6:--------------------|


ORDER:
=====

A
B 8x
C
B 8x
D
B 2x
E
B 2x





10.Pictures (I've already posted it as a single song but nobody has rated it yet!
Only because it's number two! ANYWAY!)


A
1:----------|
2:----------|
3:----------|
4:-1--0-1-3-|
5:-1--0-1-3-|
6:-1--0-1-3-|


B
             pm.......
1:----------|---------|
2:----------|---------|
3:----------|---------|
4:-1--0-1-3-|-5-3-1-0-|
5:-1--0-1-3-|-5-3-1-0-|
6:-1--0-1-3-|-5-3-1-0-|


C
   pm.........                ........
1:----------------|----------|---------|
2:-9-9-9-9-9-9-9--|----------|---------|
3:-7-7-7-7-7-7-7--|----------|---------|
4:-7-7-7-7-7-7-7--|-1--0-1-3-|-5-3-1-0-|
5:-5-5-5-5-5-5-5--|-1--0-1-3-|-5-3-1-0-|
6:----------------|-1--0-1-3-|-5-3-1-0-|


D
   pm.........      pm.........      pm.........      pm...
1:----------------|----------------|----------------|----------------|
2:-9-9-9-9-9-9-9--|-9-9-9-9-9-9-9--|-9-9-9-9-9-9-9--|-9-9-9-9-9-9-9--|
3:-7-7-7-7-7-7-7--|-7-7-7-7-7-7-7--|-7-7-7-7-7-7-7--|-7-7-7-7-7-7-7--|
4:-7-7-7-7-7-7-7--|-7-7-7-7-7-7-7--|-7-7-7-7-7-7-7--|-7-7-7-7-7-7-7--|
5:-5-5-5-5-5-5-5--|-5-5-5-5-5-5-5--|-5-5-5-5-5-5-5--|-5-5-5-5-5-5-5--|
6:----------------|----------------|----------------|----------------|


E
1:----------------------------------|-------------------------------------|
2:----------------------------------|-------------------------------------|
3:-7----12--11----15--14----12--11--|--8--7----12--11----15--14----12--11-|
4:----------------------------------|-------------------------------------|
5:-5----10---9----13--12----10---9--|--6--5----10---9----13--12----10---9-|
6:----------------------------------|-------------------------------------|


F
1:----|
2:----|
3:-8~-|
4:----|
5:-6~-|
6:----|


G
1:-----------------------------------|-------------------------------|
2:-----------------------------------|-------------------------------|
3:-----------------------------------|-------------------------------|
4:--\--1--0----5--4----8--7----5--4--|--1--0----5--4----8--7----5--4-|
5:--\--1--0----5--4----8--7----5--4--|--1--0----5--4----8--7----5--4-|
6:--\--1--0----5--4----8--7----5--4--|--1--0----5--4----8--7----5--4-|


H
pm......................................................................
1:-----------------|-----------------|-----------------|-----------------|
2:-----------------|-----------------|-----------------|-----------------|
3:-----------------|-----------------|-----------------|-----------------|
4:-1-1-0-0-0-0-0-0-|-5-5-4-4-4-4-4-4-|-8-8-7-7-7-7-7-7-|-5-5-4-4-4-4-4-4-|
5:-1-1-0-0-0-0-0-0-|-5-5-4-4-4-4-4-4-|-8-8-7-7-7-7-7-7-|-5-5-4-4-4-4-4-4-|
6:-1-1-0-0-0-0-0-0-|-5-5-4-4-4-4-4-4-|-8-8-7-7-7-7-7-7-|-5-5-4-4-4-4-4-4-|


I
1:----|
2:----|
3:----|
4:----|
5:----|
6:-1~-|


J
1:---------------------------------------------|
2:------------------------------9-9-9-9-9-9-9--|
3:-7----12--11----15--14----12--7-7-7-7-7-7-7--|
4:------------------------------7-7-7-7-7-7-7--|
5:-5----10---9----13--12----10--5-5-5-5-5-5-5--|
6:---------------------------------------------|



ORDER:
=====

A 8x
B 4x
C 3x
D
E
F
C 3x
D
E
G
H 2x
I
C 3x
D
J





11.Highway Song






A
pm.......................
1:-----------------------|
2:-----------------------|
3:-----------------------|
4:-0-0---0-0---0-0---0-0-|
5:-0-0---0-0---0-0---0-0-|
6:-0-0---0-0---0-0---0-0-|


B
pm.....................
1:---------------------|
2:---------------------|
3:---------------------|
4:-0-0--000---0-0--000-|
5:-0-0--000---0-0--000-|
6:-0-0--000---0-0--000-|


C
pm....           ...
1:---------------------------|
2:---------------------------|
3:---------------------------|
4:-0-0--h5h5h5---0-0--h5h5h5-|
5:-0-0-----------0-0---------|
6:-0-0-----------0-0---------|


D
1:-5----4----0----3-|
2:-6----5----2----5-|
3:-7----6----2----5-|
4:-7----6----2----5-|
5:-5----4----0----3-|
6:------------------|


E
1:-----------------------------|-4---------4-------------0----3-|
2:-6------8-----6-----5----5---|-5--5----5----5----------2----5-|
3:---7------7-----7------7---7-|-6-----6---------6-------2----5-|
4:-----7------7-----7----------|-6------------------6----2----5-|
5:-----------------------------|-4-----------------------0----3-|
6:-----------------------------|--------------------------------|


F
pm....................................................
1:--------------------------|--------------------------|
2:--------------------------|--------------------------|
3:--------------------------|--------------------------|
4:-7--7--8--7-7--7-7-7-8--7-|-6--6--7--6-6--6-6-6-7--6-|
5:-5--5--6--5-5--5-5-5-6--5-|-4--4--5--4-4--4-4-4-5--4-|
6:--------------------------|--------------------------|

pm....................................................
1:--------------------------|--------------------------|
2:--------------------------|--------------------------|
3:--------------------------|--------------------------|
4:-2--2--3--2-2--2-2-2-3--2-|-5--5--5--5-5--5-5-5-5--5-|
5:-0--0--1--0-0--0-0-0-1--0-|-3--3--3--3-3--3-3-3-3--3-|
6:--------------------------|--------------------------|

pm....................................................
1:--------------------------|--------------------------|
2:--------------------------|--------------------------|
3:--------------------------|--------------------------|
4:-7--7--8--7-7--7-7-7-8--7-|-6--6--7--6-6--6-6-6-7--6-|
5:-5--5--6--5-5--5-5-5-6--5-|-4--4--5--4-4--4-4-4-5--4-|
6:--------------------------|--------------------------|
pm.........................
1:--------------------------|---------------|
2:--------------------------|---------------|
3:--------------------------|---------------|
4:-2--2--3--2-2--2-2-2-3--2-|-5---5---5---5-|
5:-0--0--1--0-0--0-0-0-1--0-|-3---3---3---3-|
6:--------------------------|---------------|


G
1:---------12-------------12----|---------12------------12----|
2:-----15----------15--------15-|-----15----------15-------15-|
3:-14----------14------14-------|-13----------13------13------|
4:------------------------------|-----------------------------|
5:------------------------------|-----------------------------|
6:------------------------------|-----------------------------|

1:-----13--12------13-----13-12-|-----13--12------13-----13-12-|
2:------------------------------|------------------------------|
3:-15----------15------15-------|-14----------14------14-------|
4:------------------------------|------------------------------|
5:------------------------------|------------------------------|
6:------------------------------|------------------------------|


B'
pm................
1:-----------------|
2:-----------------|
3:-----------------|
4:-0-0-0-0-0-0-0-0-|
5:-0-0-0-0-0-0-0-0-|
6:-0-0-0-0-0-0-0-0-|


H
1:---------------------|
2:---------------------|
3:---------------------|
4:-0----11----7----10--|
5:-0----11----7----10--|
6:-0----11----7----10--|


I
2x:          2x:             2x:        2x:
pm....................................................
1:----------|---------------|----------|---------------|
2:----------|---------------|----------|---------------|
3:----------|---------------|----------|---------------|
4:-0-0--000-|-11-11--111111-|-7-7--777-|-10-10--101010-|
5:-0-0--000-|-11-11--111111-|-7-7--777-|-10-10--101010-|
6:-0-0--000-|-11-11--111111-|-7-7--777-|-10-10--101010-|


ORDER:
=====

A 2x
B 4x
C 4x
D
E
F
D
E
F 2x
G 2x
A
B 3x
B'
H 2x
I 2x
G 4x
C 4x





12.Fuck the System




A(all notes are artificial harmonics in middle position)

1:------------------10-8-|-----------------10-8-|-------------------10-8-|-------------10-8-8-10|
2:------------10-8-------|-----------10-8-------|-------------10-8-------|----------------------|
3:------10-8-------------|-10--10-8-------------|-------10-8-------------|-------10-8-----------|
4:10-8-------------------|----------------------|-10-8-------------------|-10-8-----------------|
5:-----------------------|----------------------|------------------------|----------------------|
6:-----------------------|----------------------|------------------------|----------------------|


B
1:---------------------------------|
2:---------------------------------|
3:---------------------------------|
4:-0-2-3-000-2-3-0-0-2-3-000-2-3-0-|
5:-0-2-3-000-2-3-0-0-2-3-000-2-3-0-|
6:-0-2-3-000-2-3-0-0-2-3-000-2-3-0-|


B'
pm................................
1:---------------------------------|
2:---------------------------------|
3:---------------------------------|
4:-0-2-3-000-2-3-0-0-2-3-000-2-3-0-|
5:-0-2-3-000-2-3-0-0-2-3-000-2-3-0-|
6:-0-2-3-000-2-3-0-0-2-3-000-2-3-0-|


C
1:----------------------------------10-8-10-8-|
2:-----------------------10-8-10-8------------|
3:------------10-8-10-8-----------------------|
4:-10-8-10-8----------------------------------|
5:--------------------------------------------|
6:--------------------------------------------|


D(artificial harmonic in the middle from Bridge to middle)
  3x:                          1x:              3x:                          1x:
1:----------------------------|-----------------|----------------------------|-----------------|
2:----------------------------|-----------------|----------------------------|-----------------|
3:----------------------------|-----------------|----------------------------|-----------------|
4:----------------------------|-----------------|----------------------------|-----------------|
5:-3-3-1--3-3-1--3-3-1--3-3-1-|-ah3-ah3-ah3-ah3-|-3-3-1--3-3-1--3-3-1--3-3-1-|-ah3-ah3-ah3-ah3-|
6:----------------------------|-----------------|----------------------------|-----------------|

  4x:                  4x:
1:--------------------|----------------------------|
2:--------------------|----------------------------|
3:--------------------|----------------------------|
4:--------------------|----------------------------|
5:-3-1--3-1--3-1--3-1-|-3-3-1--3-3-1--3-3-1--3-3-1-|
6:--------------------|----------------------------|


E
1:---------------|--------------------|---------------|----------------------|
2:---------------|--------------------|---------------|----------------------|
3:---------------|--------------------|---------------|----------------------|
4:-0-2-3-0--8--8-|-0-2-3-0--10-8-10-8-|-0-2-3-0--8--8-|-10-8-10-8--10-8-10-8-|
5:-0-2-3-0--8--8-|-0-2-3-0--10-8-10-8-|-0-2-3-0--8--8-|-10-8-10-8--10-8-10-8-|
6:-0-2-3-0--8--8-|-0-2-3-0--10-8-10-8-|-0-2-3-0--8--8-|-10-8-10-8--10-8-10-8-|

1:---------------|--------------------|---------------|
2:---------------|--------------------|---------------|
3:---------------|--------------------|---------------|
4:-0-2-3-0--8--8-|-0-2-3-0--10-8-10-8-|-0-2-3-0--8--8-|
5:-0-2-3-0--8--8-|-0-2-3-0--10-8-10-8-|-0-2-3-0--8--8-|
6:-0-2-3-0--8--8-|-0-2-3-0--10-8-10-8-|-0-2-3-0--8--8-|


F
1:----------------------------10-10-8-|
2:-------------------10-10-8----------|
3:----------10-10-8-------------------|
4:-10-10-8----------------------------|
5:------------------------------------|
6:------------------------------------|


G
1:----------------------------|----------------------|----------------------|
2:----------------------------|----------------------|------------10-8-10-8-|
3:----------------------------|------------10-8-10-8-|----------------------|
4:-10-8-10-8--10-10-8-10-10-8-|-10-8-10-8------------|-10-8-10-8------------|
5:-10-8-10-8------------------|-10-8-10-8------------|-10-8-10-8------------|
6:-10-8-10-8------------------|-10-8-10-8------------|-10-8-10-8------------|

1:------------10-8-10-8-|----------------------------|----------------------------|
2:----------------------|----------------------------|----------------------------|
3:----------------------|----------------------------|------------10-10-8-10-10-8-|
4:-10-8-10-8------------|-10-8-10-8--10-10-8-10-10-8-|-10-8-10-8------------------|
5:-10-8-10-8------------|-10-8-10-8------------------|-10-8-10-8------------------|
6:-10-8-10-8------------|-10-8-10-8------------------|-10-8-10-8------------------|

1:----------------------|----------------------------|----------------------|
2:----------------------|----------------------------|------------10-8-10-8-|
3:----------------------|------------10-10-8-10-10-8-|----------------------|
4:-10-8-10-8--10-8-10-8-|-10-8-10-8------------------|-10-8-10-8------------|
5:-10-8-10-8------------|-10-8-10-8------------------|-10-8-10-8------------|
6:-10-8-10-8------------|-10-8-10-8------------------|-10-8-10-8------------|

1:------------10-10-8-10-10-8-|----------------------------|----------------------|
2:----------------------------|----------------------------|----------------------|
3:----------------------------|----------------------------|------------10-8-10-8-|
4:-10-8-10-8------------------|-10-8-10-8--10-10-8-10-10-8-|-10-8-10-8------------|
5:-10-8-10-8------------------|-10-8-10-8------------------|-10-8-10-8------------|
6:-10-8-10-8------------------|-10-8-10-8------------------|-10-8-10-8------------|

1:----------------------------|------------10-8-10-8-|
2:------------10-10-8-10-10-8-|----------------------|
3:----------------------------|----------------------|
4:-10-8-10-8------------------|-10-8-10-8------------|
5:-10-8-10-8------------------|-10-8-10-8------------|
6:-10-8-10-8------------------|-10-8-10-8------------|


H
  3x:                        1x:(artificial harmonic in the middle from Bridge to middle)
1:----------------------------|-----------------|
2:----------------------------|-----------------|
3:----------------------------|-----------------|
4:----------------------------|-----------------|
5:-3-3-1--3-3-1--3-3-1--3-3-1-|-ah3-ah3-ah3-ah3-|
6:----------------------------|-----------------|


ORDER:
=====

A
B 2x
B'2x
C
D
E
B 2x
F 2x
D
E
B 2x
F 2x
G
H
B 4x




13.Ego Brain






A
  2x:                           1x:                       1x:
1:-----0-2^3^2-0-------------|-----0-2^3^2-0-----5-------|-------15-------15--------------|
2:---0-----------------------|---0-------------3-----3---|----15-------15--------8-----10-|
3:-------------------4-----4-|---------------------4---4-|-12-------12---------7-----9----|
4:-2---------------2-----2---|-2-------------0-----------|-------------------5-----7------|
5:---------------0-----0-----|---------------------------|--------------------------------|
6:---------------------------|---------------------------|--------------------------------|


B
1:-----0-2^3^2-0-------------|-----0-2^3^2-0---------|-------------------------------|
2:---0-----------------------|---0-------------------|-------------------------------|
3:-------------------4-----4-|-----------------------|-------------------------------|
4:-2---------------2-----2---|-2-------------5--7--9-|-3---3---3---3---2---2---2---2-|
5:---------------0-----0-----|---------------5--7--9-|-3---3---3---3---2---2---2---2-|
6:---------------------------|---------------5--7--9-|-3---3---3---3---2---2---2---2-|

1:--------------------------------|
2:--------------------------------|
3:--------------------------------|
4:-3---3---5--7--9--2---2---2---2-|
5:-3---3---5--7--9--2---2---2---2-|
6:-3---3---5--7--9--2---2---2---2-|


C
1:-------------------|-------------------|----------------------------|-------------------|
2:-------------------|-------------------|----------------------------|-------------------|
3:-------------------|-------------------|----------------------------|-------------------|
4:-2--2b3r2----------|-2--2b3r2----------|-3--3-5-3-5/7-5-3-5-3^5^3\2-|-2--2b3r2----------|
5:-2--------3--2b3r2-|-2--------3--2b3r2-|-3--------------------------|-2--------3--2b3r2-|
6:-2-----------------|-2-----------------|-3--------------------------|-2-----------------|


D
1:-3-|
2:-5-|
3:-4-|
4:-2-|
5:---|
6:---|


ORDER:
=====

A 3x
B
C 2x
A
B
C 2x
A 2x
B
C 2x
A
D




15.Roulette

(I've never expected that of Soad!)



A
1:-------------------------------|-------------------------------|
2:----6------6---/--10-------5---|-----8------8------3-------5---|
3:-------------------------------|-------------------------------|
4:-------------------------------|-------------------------------|
5:-5----5--5---5-/8-----0-3----3-|/-6----6--6---0-1----1--3----3-|
6:-------------------------------|-------------------------------|


B
1:-----------------------------|------------------------------|
2:----6------6------2------2---|----5------5------3-------5---|
3:-----------------------------|------------------------------|
4:-----------------------------|------------------------------|
5:-5----5--5---5-0----0--0---0-|-3----3--3---0-1----1--3----3-|
6:-----------------------------|------------------------------|


Solo (A is played 4x as accompaniment with a 2nd guitar)

1.:
1:-10---10-12-13---12-13-15----12-13-15-13--12\10--12--13--12--10-|
2:----------------------------------------------------------------|
3:----------------------------------------------------------------|
4:----------------------------------------------------------------|
5:----------------------------------------------------------------|
6:----------------------------------------------------------------|

1:-10------------------------------------------------------------5/6\5--5--3--3--1--1|
2:------10--10----10-11-13-11--10\8--10--11--10--8--8------------6/8\6--6--5--5--3--3|
3:-----------------------------------------------------------------------------------|
4:------------------------------------------------------10--10-----------------------|
5:-----------------------------------------------------------------------------------|
6:-----------------------------------------------------------------------------------|

2.: (a 3rd guitar is playing 3. additional)
1:/10---10-12-13---12-13-15----12-13-15-13--12\10--12--13--12--10-|
2:----------------------------------------------------------------|
3:----------------------------------------------------------------|
4:----------------------------------------------------------------|
5:----------------------------------------------------------------|
6:----------------------------------------------------------------|

1:-10------------------------------------------------------------5/6\5--5--3--3--1--1-|
2:------10--10----10-11-13-11--10\8--10--11--10--8--8------------6/8\6--6--5--5--3--3-|
3:------------------------------------------------------------------------------------|
4:------------------------------------------------------10--10------------------------|
5:------------------------------------------------------------------------------------|
6:------------------------------------------------------------------------------------|


3.: (played from a 3rd guitar)
1:-13---12-13-15---15-17-18----17-18-20-18--17\15--17--18--17--15-|
2:----------------------------------------------------------------|
3:----------------------------------------------------------------|
4:----------------------------------------------------------------|
5:----------------------------------------------------------------|
6:----------------------------------------------------------------|

1:-15-------------12-13-15-13--12\10--12--13--12--10--10------------10/12\10--10--8--8--6--6-|
2:------18--18---------------------------------------------10--10----------------------------|
3:-------------------------------------------------------------------------------------------|
4:-------------------------------------------------------------------------------------------|
5:-------------------------------------------------------------------------------------------|
6:-------------------------------------------------------------------------------------------|


C
1:-5-|
2:-6-|
3:-7-|
4:-7-|
5:-5-|
6:---|


ORDER:
=====

A 4x
B 2x
A 4x
B 4x
A 4x (Solo)
B 4x
A 4x
C




16.Streamline




Intro(clean):
   pm.............
1:------------------|
2:------------------|
3:------------------|
4:------------------|
5:------------------|
6:-0--0-5b7--0-0-3--|


A(w/distortion)
1:--------------|
2:--------------|
3:--------------|
4:-5-5-5-5-5-5--|
5:-5-5-5-5-5-5--|
6:-5-5-5-5-5-5--|


B(w/distortion)
1:------------------|
2:------------------|
3:------------------|
4:------------------|
5:-0--0------0-0----|
6:-0--0-5b7--0-0-3--|


C(w/distortion)
1:-------------|
2:-------------|
3:-------------|
4:-8-8-8-8-7-5-|
5:-8-8-8-8-7-5-|
6:-8-8-8-8-7-5-|


D1(clean)
1:------------------------------------------------------|-----------------|
2:------10-------10-------10-------10-------10-------10-|-------11------8-|
3:---11-------11-------11-------11-------11-------11----|----10-------7---|
4:-0--------0--------0--------0--------0--------0-------|--8--------5-----|
5:------------------------------------------------------|-----------------|
6:------------------------------------------------------|-----------------|

D2(clean)
1:----------------------------------------------------|----------------|
2:------10-------10-------10-------10-------10------6-|-------6------8-|
3:---11-------11-------11-------11-------11-------7---|----7-------7---|
4:-0--------0--------0--------0--------0--------0-----|--8-------5-----|
5:----------------------------------------------------|----------------|
6:----------------------------------------------------|----------------|

D3(clean)
1:------------------------------------------------------|-----------------|
2:------10-------10-------10-------10-------10-------10-|-----------------|
3:---11-------11-------11-------11-------11-------11----|-----------------|
4:-0--------0--------0--------0--------0--------0-------|--8--------5-----|
5:------------------------------------------------------|-----------------|
6:------------------------------------------------------|-----------------|


E1(w/distortion):
1:-------------|-------------|-------------|-10-10-10-10-10-10-|
2:-------------|-------------|-------------|-10-10-10-10-10-10-|
3:-------------|-------------|-------------|-------------------|
4:-5-5-5-5-5-5-|-5-5-5-5-5-5-|-5-5-5-5-5-5-|-------------------|
5:-5-5-5-5-5-5-|-5-5-5-5-5-5-|-5-5-5-5-5-5-|-------------------|
6:-5-5-5-5-5-5-|-5-5-5-5-5-5-|-5-5-5-5-5-5-|-------------------|


Solo(w/distortion):
1:-10------12------13------15-13-12--13-12^13^12-10-|
2:-----10------10------10---------------------------|
3:--------------------------------------------------|
4:--------------------------------------------------|
5:--------------------------------------------------|
6:--------------------------------------------------|

1:-10------12------13-------15-13-12--13-12^13^12-13-|--17---------------------------|
2:-----10------10------10----------------------------|------17---18-17-15--17-15-----|
3:---------------------------------------------------|---------------------------17--|
4:---------------------------------------------------|-------------------------------|
5:---------------------------------------------------|-------------------------------|
6:---------------------------------------------------|-------------------------------|

1:-17--------------------------------|--10------12------13-------15-13-12--13-12^13^12-13-|
2:-----17---18-17^18^17-15--17-15----|------10------10------10----------------------------|
3:--------------------------------17-|----------------------------------------------------|
4:-----------------------------------|----------------------------------------------------|
5:-----------------------------------|----------------------------------------------------|
6:-----------------------------------|----------------------------------------------------|

1:-17--------------------------------|--17--------------------------------|
2:-----17---18-17^18^17-15--17-15----|------17---18-17^18^17-15--17-15----|
3:--------------------------------17-|---------------------------------17-|
4:-----------------------------------|------------------------------------|
5:-----------------------------------|------------------------------------|
6:-----------------------------------|------------------------------------|

pm..............................................................................
1:-17-17-17------------------------------|-17-17-17------------------------------|
2:-----------17-17-17--18-17-15-17-15----|-----------17-17-17--18-17-15-17-15----|
3:------------------------------------17-|------------------------------------17-|
4:---------------------------------------|---------------------------------------|
5:---------------------------------------|---------------------------------------|
6:---------------------------------------|---------------------------------------|

pm.................................................................
1:-17-17-17------------------------------------|-17-17-17------------------------|
2:-----------17-17-17--18-17^18^17-15-17-15----|-----------17-17-17--------------|
3:------------------------------------------17-|---------------------------------|
4:---------------------------------------------|---------------------5-5-5-5-5-5-|
5:---------------------------------------------|---------------------5-5-5-5-5-5-|
6:---------------------------------------------|---------------------5-5-5-5-5-5-|


E2(w/distortion):
1:-------------|-------------|-------------|-------------|
2:-------------|-------------|-------------|-------------|
3:-------------|-------------|-------------|-------------|
4:-5-5-5-5-5-5-|-5-5-5-5-5-5-|-5-5-5-5-5-5-|-5-5-5-5-5-5-|
5:-5-5-5-5-5-5-|-5-5-5-5-5-5-|-5-5-5-5-5-5-|-5-5-5-5-5-5-|
6:-5-5-5-5-5-5-|-5-5-5-5-5-5-|-5-5-5-5-5-5-|-5-5-5-5-5-5-|



ORDER:
=====

Intro  7x
A      1x
B      7x
C      1x
B      7x
C      1x

D1     4x
D2     1x
D1     1x

A      1x
B      3x
C      1x
B      3x
C      1x
B      3x
C      1x
B      3x
C      1x

D1     1x
D3     1x
D1     2x
D2     1x
D1     1x

A      1x
B      3x
C      1x
B      3x
C      1x
B      3x
C      1x
B      3x
C      1x
E1     1x

Solo

B      3x
C      1x
B      3x
C      1x

E1     1x

B      8x
E2     1x
E1     1x




That's it my friends!
Take you time to work it!!!

Still questions?
Post to Wes-God@web.de
comments
print report bad tab
16 comments total. Showing first comments.
0 reply
gay_bastard wrote on October 3 2003, 12:00 am

Not too bad, I disagree on some parts but better than any other tabber that I\'ve seen on the net, most of these guys just need to stop playing guitar

0 reply
BestT@GuitaR wrote on November 8 2003, 12:00 am

system uses drop B for chic 'n' stu actually you know like this
(B-F#-B-E-G#-C)

0 reply
Vassago36 wrote on August 26 2004, 12:00 am

is it just me or did you miss a song?



thetawaves?you know,the song before roulette?

I want to post or [tab]
guest
You may want to rate the tab now too:
select rating
Please do not post tabs as comments. Select "correction" instead!