Oops, an error
Loading. Please wait.

Steal This Album Tab

ver2
ver2

Album

More versions @911Tabs.com
6,310 views 9 this week
3 commentsread comments
1 2 3 4 5
accurate
x 6
add to favorites launch autoscroll
font size
0
reset
Autoscroll
+/-
esc
set tempo
stop
Contributor
WARNING: You are trying to view
                                    content from Ultimate-Guitar.com
                                    in an unauthorized application,
                                    which is prohibited.

                                    Please use an official Ultimate
                                    Guitar Tabs application for iPhone,
                                    iPad or Android to access legitimate
                                    chords, guitar, bass, and drum tabs
                                    from Ultimate-Guitar.com database.

                                    Type "ultimate guitar tabs" in Apple
                                    App Store's or Android Market's
                                    search to find the application.
Band- System Of A Down
Album- Steal This Album

Tracks:
1.Chic N Stu
2.Innervision
3.Bubbles
4.Boom
5.Nueguns
6.Add
7.Mr.Jack
8.IEAIAIO
9.36
10.Pictures
11.Highway Song
12.Fuck The System
13.Ego Brain
14.Roulette
15.Streamline

1.CHIC N STU

Tuning- Drop C

Intro/Pre-Verse
|-------------|
|-14-14-14-14-|
|-12-12-12-12-|
|-------------|
|-------------|
|-------------|

Verse
|-------------------------|
|-------------------------|
|-------------------------|
|-------------------------|
|-11h12-11-12-11-12-11-12-|
|-11h12-11-12-11-12-11-12-|

Pre-Chorus
|-------------------------------------------|
|-------------------------------------------|
|-------------------------------------------|
|----11-12-14-12-11-12-14-12-11-12-14-12-11-|
|-11----------------------------------------|
|-11----------------------------------------|
p.m. .. .. .. .. .. .. .. .. .. .. .. .. ..

|----------------------------------------------|
|----------------------------------------------|
|----------------------------------------------|
|----------------------------------------------|
|-11--11-12-11--11-12-11--11-12-11-12-11-12-11-|
|-11--11-12-11--11-12-11--11-12-11-12-11-12-11-|

Chorus
|----------------------------------------------|
|----------------------------------------------|
|----------------------------------------------|
|----------------------------------------------|
|-11--11-12-11--11-12-11--11-12-11-12-11-12-11-|
|-11--11-12-11--11-12-11--11-12-11-12-11-12-11-|

Interlude
|-----10---------------------------------------------|
|---8------------------------------------------------|
|-8--------------------------------------------------|
|----------------------------------------------------|
|--------11--11-0-11--11-0-11--11-0-11-0-11-0-11-----|
|--------11--11-0-11--11-0-11--11-0-11-0-11-0-11-----|

|-----10-----------------------------------------------|
|---8--------------------------------------------------|
|-8----------------------------------------------------|
|------------------------------------------------------|
|---------11--11-12-11--11-12-11--11-12-11-12-11-12-11-|
|---------11--11-12-11--11-12-11--11-12-11-12-11-12-11-|

|-----10-|-----10-----8-----10-----8----10--10-11-10-11-10-11-10-11-|
|---8----|---8-----6-----8------6-----8-----------------------------|
|-8------|-8-----6-----8------6-----8-------------------------------|
|--------|----------------------------------------------------------|
|--------|----------------------------------------------------------|
|--------|----------------------------------------------------------|

Order:
Intro/Pre-Verse
Verse
Pre-Chorus
Chorus
Pre-Verse
Verse
Pre-Chorus
Chorus
Interlude
Verse
Pre-Chorus
Chorus

2.INNERVISION

Tuning- Drop C

Intro:
D|-------------------------------------------|
A|-------------------------------------------|
F|-------------------------------------------|
C|----1--1-1-1--1-1-1-1-1--1-1-1--1-1-1-1----| no slide second time
G|----1--1-1-1--1-1-1-1-1--1-1-1--1-1-1-1----|
C|-11\1--1-1-1--1-1-1-1-1--1-1-1--1-1-1-1----|

Pre-Verse:
D|-------------------------------------|
A|-------------------------------------|
F|-------------------------------------|
C|-------------------------------------|
G|-------------------------------------|
C|-0-0-0-5-5-5-3-3-3-1-1-1-3-3-1-1-x2--|
pm ...............................

Verse: Fast Palm muted
D|----------------------------------|
A|----------------------------------|
F|----------------------------------|
C|----------------------------------|
G|----------------------------------|
C|-0-0-0-5-5-5-3-3-3-1-1-1-3-3-1-1--|
pm ...............................

Verse(continued)
D|----------------------------------|
A|----------------------------------|
F|----------------------------------|
C|----------------------------------|
G|----------------------------------|
C|-0-0-0-5-5-5-7-7-7-3-3-3-7-7-5-5--|
pm .................................

Pre-Chorus:      -->            this part clean
D|-----------------------------------------------|
A|-----------------------------------------------|
F|---------------------------------3------3------|
C|-1-----------------------------0-----0---------|
G|-1-x16-----------------------1-----1-----------|
C|-1---------------------------------------------|

Chorus:
D|------------------------------------------|
A|------------------------------------------|
F|------------------------------------------|
C|-0--5--7--3--7--5---------1---------------|
G|-0--5--7--3--7--5-x2------1-(16 times)----|
C|-0--5--7--3--7--5---------1---------------|

Pre-Verse:
D|--------------------------------------|
A|--------------------------------------|
F|--------------------------------------|
C|--------------------------------------|
G|--------------------------------------|
C|-0-0-0-5-5-5-3-3-3-1-1-1-3-3-1-1--x2--|
pm ...............................

Verse
Pre-Chorus
Chorus

Bridge:
D|-6--6-6--6-6-6--5--5-5--5-5-5--|
A|-4--4-4--4-4-4--4--4-4--4-4-4--|
F|-------------------------------|
C|-------------------------------|
G|-------------------------------|
C|-------------------------------|

Bridge (cont'd):
D|-6--6-6--6-6-6---5--5-5--5-5-5---6--6-6--6-6-6---5--5-5---5-5-5--6~--------|
A|-4--4-4--4-4-4---4--4-4--4-4-4---4--4-4--4-4-4---4--4-4---4-4-4--4~--------|
F|---------------------------------------------------------------------------|
C|---------------------------------------------------------------------------|
G|---------------------------------------------------------------------------|
C|---------------------------------------------------------------------------|

Outro 1: Slowly
D|------------------------------|
A|------------------------------|
F|------------------------------|
C|-0-0--5-5--3-3--1-1-3-1-------|
G|-0-0--5-5--3-3--1-1-3-1-x2----|
C|-0-0--5-5--3-3--1-1-3-1-------|
pm .  . .  . .  . . . .

Outro 2: Fast Palm muted
D|-------------------------------------------------------------------------|
A|-------------------------------------------------------------------------|
F|-------------------------------------------------------------------------|
C|-0-0-0-5-5-5-3-3-3-1-1-1-3-3-1-1--0-0-0-5-5-5-3-3-3-1-1-1-3-3-1----------|
G|-0-0-0-5-5-5-3-3-3-1-1-1-3-3-1-1--0-0-0-5-5-5-3-3-3-1-1-1-3-3-1-(no ring)|
C|-0-0-0-5-5-5-3-3-3-1-1-1-3-3-1-1--0-0-0-5-5-5-3-3-3-1-1-1-3-3-1----------|
pm . . . . . . . . . . . . . . . .  . . . . . . . . . . . . . . .

3.BUBBLES

Tuning: Drop D, Down 1 Step (C,G,C,F,A,D)

INTRO: (palm mute)
|---------|
|---------|
|---------|
|-6-6-6-6-|
|-6-6-6-6-|
|-6-6-6-6-|

CHORUS:
|----------------------------------------------------------|
|----------------------------------------------------------|
|----------------------------------------------------------|
|-3-5--5-3-5--5-3-5--5-3-5--5-3-5--5-3-5--5-3-5--5-6-6-6-6-|
|-3-5--5-3-5--5-3-5--5-3-5--5-3-5--5-3-5--5-3-5--5-6-6-6-6-|
|-3-5--5-3-5--5-3-5--5-3-5--5-3-5--5-3-5--5-3-5--5-6-6-6-6-|
pm                                                 . . . .

CHORUS B: (palm mute)
|------------------------------|
|------------------------------|
|------------------------------|
|-3-5--5-3--5--3-5--5--6-6-6-6-|
|-3-5--5-3--5--3-5--5--6-6-6-6-|
|-3-5--5-3--5--3-5--5--6-6-6-6-|

VERSE:
|-----------------------------------|
|--------------------------66-------|
|-55778877554-4-4--55778877--887788-|
|-----------------------------------|
|-----------------------------------|
|-----------------------------------|

CHORUS C:
|------------------------------|
|------------------------------|
|------------------------------|
|------------------------------|
|-3-5--5-3--5--3-5--5--6-6-6-6-|
|-3-5--5-3--5--3-5--5--6-6-6-6-|

FILL:
|---|
|---|
|---|
|---|
|-5-|
|-5-|

INTERLUDE:
|------------------------|
|------------------------|
|------------------------|
|------------------------|
|-3-/8-5-6-5--3-/8-5-6-5-|
|-3-/8-5-6-5--3-/8-5-6-5-|

INTERLUDE FILL:
|------------------|
|---------66-------|
|-55778877--887788-|
|------------------|
|------------------|
|------------------|

4.BOOM

Gtr I (C G C F A D)
Gtr II (C G C F A D)
   Intro
    Q=154
    N.C.
   4/4
    Gtr I                         Gtrs I, II
    PM---------------------------------------------------------|
||--------------|--------------||-------------|----------------|
||o-------------|-------------o||-------------|----------------|
||--------------|--------------||-------------|----------------|
||--------------|--------------||-------------|----------------|
||o-------------|-------------o||-------------|----------------|
||--1--1--0--0--|-1--1--0--0---||-1--1--0--0--|-1--1--0--0-----|


                              1st, 2nd Verses
                               N.C.
  PM------------------|        PM--------------------------------|
|-------------|------------||------------------------------------|
|-------------|------------||o-----------------------------------|
|-------------|------------||------------------------------------|
|-------------|------------||------------------7-7---------------|
|-------------|------------||o-5-5-7-7-8-8-7-7-----8-8-7-7-8-8---|
|-1--1--0--0--|-1--1--0----||------------------------------------|


  PM-------------------------------------------------------------------|
|---------------------------------|------------------------------------|
|---------------------------------|------------------------------------|
|---------------------------------|------------------------------------|
|-----------------7-7-------------|-----------------6-6----------------|
|-5-5-7-7-8-8-7-7-----8-8-7-7-8-8-|-4-4-6-6-7-7-6-6-----7-7-6-6-7-7----|
|---------------------------------|------------------------------------|


  PM--------------------------------|
|-----------------------------------|
|-----------------------------------|
|-----------------------------------|
|-----------------6-6---------------|
|-4-4-6-6-7-7-6-6-----7-7-6-6-7-7---|
|-----------------------------------|


 ---------------------------------------------------|
|---------------------------------------------------|
|---------------------------------------------------|
|---------------------------------------------------|
|-----------------------10-10-----------------------|
|-8-8-10-10-11-11-10-10-------11-11-10-10-11-11-----|
|---------------------------------------------------|
  PM------------------------------------------------|
|---------------------------------------------------|
|---------------------------------------------------|
|---------------------------------------------------|
|-----------------------10-10-----------------------|
|-8-8-10-10-11-11-10-10-------11-11-10-10-11-11-----|
|---------------------------------------------------|


 -------------------------------------|
|-------------------------------------|
|-------------------------------------|
|-------------------------------------|
|-----------------8-8-----------------|
|-6-6-8-8-9-9-8-8-----9-9-8-8-9-9-----|
|-------------------------------------|


  Gtr II
  PM-------------------------------------------------------------------|
|----------------------------------|-----------------------------------|
|----------------------------------|-----------------------------------|
|----------------------------------|-14--------14-------13-------13----|
|-----------------8-8--------------|------12--------12--------12----12-|
|-6-6-8-8-9-9-8-8-----9-9-8-8-9/---|-----------------------------------|
|----------------------------------|-----------------------------------|

| Gtr I
| PM-------------------------------------------------------------------|
|------------------------------|---------------------------------------|
|------------------------------|---------------------------------------|
|------------------------------|---------------------------------------|
|-----------------8-8----------|---------------------------------------|
|6-6-8-8-9-9-8-8--9-9-8-8-9--9-|5-5--7-7--8-8--7-7--5-5--7-7--8-8--7-7-|
|------------------------------|---------------------------------------|


   PM---------------------------------------|
|-------------------------------------------|
|-------------------------------------------|
|-14--------14--------13--------13----------|
|------12--------12--------12--------12-----|
|-------------------------------------------|
|-------------------------------------------|

|  PM---------------------------------------|
|-------------------------------------------|
|-------------------------------------------|
|-------------------------------------------|
|-------------------------------------------|
|--5-5--7-7--8-8--7-7--5-5--7-7--8-8--5-5---|
|-------------------------------------------|


 ---------------------------------------------|
|---------------------------------------------|
|---------------------------------------------|
|-14--------14--------13--------13------------|
|------12--------12--------12--------12-------|
|---------------------------------------------|
|---------------------------------------------|
|
|---------------------------------------------|
|---------------------------------------------|
|---------------------------------------------|
|---------------------------------------------|
|---------------------------------------------|
|--4-4--5-5--7-7--5-5--4-4--5-5--7-7--5-5-----|
|---------------------------------------------|


   PM---------------------------------------|
|-------------------------------------------|
|-------------------------------------------|
|-14--------14--------13--------13----------|
|------12--------12--------12--------12-----|
|-------------------------------------------|
|-------------------------------------------|

|  PM---------------------------------------|
|-------------------------------------------|
|-------------------------------------------|
|-------------------------------------------|
|-------------------------------------------|
|--4-4--5-5--7-7--5-5--4-4--5-5--7-7--5-5---|
|-------------------------------------------|

|---------------------------------------------|
|----------------------12---13----------------|
|------14---13----14--------------------------|
|-12-----------------------------15----14-----|
|---------------------------------------------|
|---------------------------------------------|

|-----------------------------------------------|
|-----------------------------------------------|
|-----------------------------------------------|
|-----------------------------------------------|
|-----------------------------------------------|
|--7-7--8-8-10-10--8-8--7-7--8-8-10-10--8-8-----|
|-----------------------------------------------|

|-------------------------------------------|
|----------------------12---13--------------|
|------14---13----14------------------------|
|-12-----------------------------15----14---|
|-------------------------------------------|
|-------------------------------------------|

|-------------------------------------------|
|-------------------------------------------|
|-------------------------------------------|
|-------------------------------------------|
|--7-7--8-8-10-10--8-8--7-7--8-8-10-10--8-8-|
|-------------------------------------------|

|-------------------------------------------|
|---------------------12---13---------------|
|------14---13---14-------------------------|
|-12----------------------------15---14-----|
|-------------------------------------------|
|-------------------------------------------|

|-------------------------------------------|
|-------------------------------------------|
|-------------------------------------------|
|-------------------------------------------|
|--6-6--8-8--9-9--8-8--6-6--8-8--9-9--8-8---|
|-------------------------------------------|


|-----------------------------------------||
|---------------------12---13-------------||
|------14---13---14-----------------------||
|-12----------------------------15---14---||
|-----------------------------------------||
|-----------------------------------------||

|-----------------------------------------||
|-----------------------------------------||
|-----------------------------------------||
|-----------------------------------------||
|--6-6--8-8--9-9--8-8--6-6--8-8--9-9--8-8-||
|-----------------------------------------||

 Chorus
  D5
     PM----|    PM----|      PM----|    PM----------|
|-----------------------|---------------------------|
|-----------------------|---------------------------|
|-----------------------|---------------------------|
|-0----------0----------|-0----------0--------------|
|-0----------0----------|-0----------0--------------|
|-0--0-0-0-0-0--0-0-0-0-|-0--0-0-0-0-0--0-0-0-0-----|
|
|    PM----|    PM----|      PM----|    PM----------|
|-----------------------|---------------------------|
|-----------------------|---------------------------|
|-----------------------|---------------------------|
|-----------------------|---------------------------|
|-0--0-0-0-0-0--0-0-0-0-|-0--0-0-0-0-0--0-0-0-0-----|
|-0--0-0-0-0-0--0-0-0-0-|-0--0-0-0-0-0--0-0-0-0-----|


  Eb5   D5      Eb5   D5      Eb5   D5      Eb5   D5
  Gtrs I, II
|-------------|-------------|-------------|-------------|
|-------------|-------------|-------------|-------------|
|-------------|-------------|-------------|-------------|
|-------------|-------------|-------------|-------------|
|-1--1--0--0--|-1--1--0--0--|-1--1--0--0--|-1--1--0--0--|
|-1--1--0--0--|-1--1--0--0--|-1--1--0--0--|-1--1--0--0--|


     PM----|    PM----|      PM----|    PM-------------------------|
|-----------------------|------------------------||----------------|
|-----------------------|-----------------------o||----------------|
|-----------------------|------------------------||----------------|
|-----------------------|------------------------||----------------|
|-0--0-0-0-0-0--0-0-0-0-|-0--0-0-0-0-0--0-0-0-0-o||-0--0--0--0-----|
|-0--0-0-0-0-0--0-0-0-0-|-0--0-0-0-0-0--0-0-0-0--||-0--0--0--0-----|


                Half time Q=77
                D5     A5   G#5    A5   B5 C5    F5
  PM----|
|------------||-----------|-----------|-------------|
|------------||-----------|-----------|-------------|
|------------||-----------|-----------|-------------|
|------------||-0------7--|-6------7--|-9--10----3--|
|-0--0--0----||-0------7--|-6------7--|-9--10----3--|
|-0--0--0----||-0------7--|-6------7--|-9--10----3--|


                         Bridge
  E5                      D5     A5   G#5    A5
|----------------------||-----------|-----------|
|----------------------||-----------|-----------|
|----------------------||-----------|-----------|
|-2--2-2-2-2-2-2-2-2-2-||-0------7--|-6------7--|
|-2--2-2-2-2-2-2-2-2-2-||-0------7--|-6------7--|
|-2--2-2-2-2-2-2-2-2-2-||-0------7--|-6------7--|


                              Chorus
                               a tempo Q=154
  B5 C5    F5   E5             D5
                                  PM----|    PM----|      PM----------|
|-----------|----------|------------------|---------------------------|
|-----------|----------|------------------|---------------------------|
|-----------|----------|------------------|---------------------------|
|-9--10----3|----------|------------------|---------------------------|
|-9--10----3|2-2-2--2--|0-0-000-0--0-0-0-0|-0--0-0-0-0-0--0-0-0-0-----|
|-9--10----3|2-2-2--2--|-0--0-0-0-0-0--0-0-0-0|-0--0-0-0-0-0--0-0-0-0-|


  Eb5   D5      Eb5   D5      Eb5   D5      Eb5   D5
|-------------|-------------|-------------|-------------|
|-------------|-------------|-------------|-------------|
|-------------|-------------|-------------|-------------|
|-------------|-------------|-------------|-------------|
|-1--1--0--0--|-1--1--0--0--|-1--1--0--0--|-1--1--0--0--|
|-1--1--0--0--|-1--1--0--0--|-1--1--0--0--|-1--1--0--0--|


     PM----|    PM----|      PM----|    PM-----------------------|
|-----------------------|-----------------------|----------------|
|-----------------------|-----------------------|----------------|
|-----------------------|-----------------------|----------------|
|-----------------------|-----------------------|----------------|
|-0--0-0-0-0-0--0-0-0-0-|-0--0-0-0-0-0--0-0-0-0-|-0--0--0--0-----|
|-0--0-0-0-0-0--0-0-0-0-|-0--0-0-0-0-0--0-0-0-0-|-0--0--0--0-----|

                Eb5   D5      Eb5   D5
  PM----------------------------------------|
|-------------|-------------|---------------|
|-------------|-------------|---------------|
|-------------|-------------|---------------|
|-------------|-------------|---------------|
|-0--0--0--0--|-1--1--0--0--|-1--1--0-------|
|-0--0--0--0--|-1--1--0--0--|-1--1--0-------|

5.NUEGUNS

Tuning: Drop D, Down 1 Step (C,G,C,F,A,D)

INTRO:
|----------|
|----------|
|----------|
|-7-8-10-8-|
|-7-8-10-8-|
|-7-8-10-8-|

CHORUS: (^ - bend 1/2 step)
|----------------------------------------------------------|
|----------------------------------------------------------|
|----------------------------------------------------------|
|----------------------------------------------------------|
|----------------------------------------------------------|
|-7-0-0-0-8-0-0-0-10-0-0-0-8^--7-0-0-0-8-0-0-0-10-0-0-0-8^-|
pm. . . . . . . . .. . . .     . . . . . . . . .. . . .

|---------------------------------------|
|---------------------------------------|
|---------------------------------------|
|------------------------------7-8-10-8-|
|------------------------------7-8-10-8-|
|-7-0-0-0-8-0-0-0-10-0-0-0-8^--7-8-10-8-|
pm. . . . . . . . .. . . .

|----------------------------------------------------------|
|----------------------------------------------------------|
|----------------------------------------------------------|
|----------------------------------------------------------|
|----------------------------------------------------------|
|-7p0-8p0-10p0-8p0-7p0-8p0-10--7p0-8p0-10p0-8p0-7p0-8p0-10-|

|--------------------------------------------|
|--------------------------------------------|
|--------------------------------------------|
|-----------------------------------7-8-10-8-|
|-----------------------------------7-8-10-8-|
|-7p0-8p0-10p0-8p0-7p0-8p0-10p0-8p0-7-8-10-8-|

FILL:
|----------------------|
|----------------------|
|-7---7---<7>---<7>----|
|---7---7----<7>---<7>-|
|----------------------|
|----------------------|

VERSE: (palm mute) (w/ random harmonics)
|--------------------------------------------------------------------|
|--------------------------------------------------------------------|
|--------7-77---7-77-----7-77---7-77-----7-77---7-77-----7-77---7-77-|
|--------------------------------------------------------------------|
|-55-6-6------6------6-6------6------6-6------6------6-6------6------|
|--------------------------------------------------------------------|
pm       . ..   . ..     . ..   . ..     . ..   . ..     . ..   . ..

|------------------------------------------------------------------|
|------------------------------------------------------------------|
|-------------<7>-------------<7>------7-77---7-77-----7-77---7-77-|
|-----<7>-------------<7>------------------------------------------|
|-0-0-----0-0-----0-0-----0-0------6-6------6------6-6------6------|
|-0-0-----0-0-----0-0-----0-0--------------------------------------|
pm. .     . .     . .     . .          . ..   . ..     . ..   . ..

|----------------------------------------------------|
|----------------------------------------------------|
|-----7-77---7-77-----7-77---7--7---7---<7>---<7>----|
|---------------------------------7---7----<7>---<7>-|
|-6-6------6------6-6------6-------------------------|
|----------------------------------------------------|
pm    . ..   . ..     . ..   .

INTERLUDE:
|-----------------|
|-----------------|
|-----------------|
|-----------------|
|-00-0-7/-00-0-7\-|
|-00-0-7/-00-0-7\-|

INTERLUDE FILL:
|----------|
|----------|
|----------|
|----------|
|----------|
|-7-8-10-8-|

SOLO: (guitar 1) (^ - bend 1/4 step)
|-----------------------------------------------------------|
|-----------------------------------------------------------|
|-7(trem)--8(trem)--7----7^---------------------------------|
|---------------------10-----10-8-10^--8-7-8^--7----7(trem)-|
|------------------------------------------------10---------|
|-----------------------------------------------------------|

|--------------------------------------------------------------------|
|-----------------------------10(trem)---13--11-10-10h11p10-10h11p10-|
|--------------------------------------------------------------------|
|-10^--8-7-8^--7---------7-------------------------------------------|
|----------------10-9-10---10----------------------------------------|
|--------------------------------------------------------------------|

|---------------------------------------------------------------|
|-13-11-10-10h11p10-10h11p10--10(trem)---13--11-10-11--10-------|
|---------------------------------------------------------12-11-|
|---------------------------------------------------------------|
|---------------------------------------------------------------|
|---------------------------------------------------------------|

SOLO: (guitar 2)
|-11-11-11-12-14-12-11-12-11----11----------------------|
|----------------------------14----14-12-14-12-11-12-11-|
|-------------------------------------------------------|
|-------------------------------------------------------|
|-------------------------------------------------------|
|-------------------------------------------------------|

|-----------------------------------------------------|
|-----------------------------------------------------|
|-14-141414-141414-141414-141414-141414-141414-141414-|
|-----------------------------------------------------|
|-----------------------------------------------------|
|-----------------------------------------------------|

|------------------------------------------------------|
|------------------------------------------------------|
|15h17p15-15h17p15-15h17p15-15h17p15-15h17p15-15h17p15-|
|------------------------------------------------------|
|------------------------------------------------------|
|------------------------------------------------------|

|-------------------------------------------------------------|
|-------------------15-15-15-15-15-15-15-15h16-18-16-15-16-15-|
|-15h17p15-15h17p15-14-14-14-14-14-14-14-14-------------------|
|-------------------------------------------------------------|
|-------------------------------------------------------------|
|-------------------------------------------------------------|

|----------------------|
|----------------------|
|-17-15-13-12-13-15-13-|
|----------------------|
|----------------------|
|----------------------|

FILL 2:
|-10(trem)-|
|----------|
|----------|
|----------|
|----------|
|----------|

6.ADD

Tuning- Drop C

INTRO:
D|-------------------------------------------------|
A|-15-15151515-15-15b-1515-15-1515-15151515-15-15b-|
F|-------------------------------------------------|
C|-------------------------------------------------|
G|-------------------------------------------------|
C|-------------------------------------------------|

D|---------------------------------------------------------------|
A|-1515151515-15b-15151515-15-15b-1515-15-15-15b-15151515-15-15b-|
F|---------------------------------------------------------------|
C|---------------------------------------------------------------|
G|---------------------------------------------------------------|
C|---------------------------------------------------------------|

D|-----------------------------------------------|
A|-----------------------------------------------|
F|-----------------------------------------------|
C|-----------------------------------------------|
G|-12-00000-12-00000-12-00000-12-000-10-12-13-12-|
C|-12-00000-12-00000-12-00000-12-000-10-12-13-12-|

D|--------------------------------------------|
A|--------------------------------------------|
F|--------------------------------------------|
C|--------------------------------------------|
G|-00000-12-00000-12-00000-12-000-10-12-13-12-|
C|-00000-12-00000-12-00000-12-000-10-12-13-12-|

D|-------------------------------------------|
A|-------------------------------------------|
F|-------------------------------------------|
C|-------------------------------------------|
G|-00000-12-0000-0-12-0000-0-12-000-10-12-13-|
C|-00000-12-0000-0-12-0000-0-12-000-10-12-13-|
 PM.....    ....      ....      ...

D|-----------------------------------------|
A|-----------------------------------------|
F|-----------------------------------------|
C|-----------------------------------------|
G|-12-00000-12-00000-12-0000-0-12-000-10/6-|
C|-12-00000-12-00000-12-0000-0-12-000-10/6-|
    PM.....    .....    ....      ...

BRIDGE:
D|------------------------------------------------------------|
A|------------------------------------------------------------|
F|------------------------------------------------------------|
C|-1--1-111-7--7-777-0--0-000-6--6-666-11--11-111111-5--5-555-|
G|-1--1-111-7--7-777-0--0-000-6--6-666-11--11-111111-5--5-555-|
C|-1--1-111-7--7-777-0--0-000-6--6-666-11--11-111111-5--5-555-|

D|---------------------------------|
A|---------------------------------|
F|---------------------------------|
C|---------------------------------|
G|-0-0-0-0-0-0-0-0-0-0-0-0-0-0-0-0-|
C|-0-0-0-0-0-0-0-0-0-0-0-0-0-0-0-0-|
PM................................

VERSE:
"We Fought Your Wars..."
D|---------------------------------------------------|
A|---------------------------------------------------|
F|-1010101010101010101010101010101010999999999999999-
C|--X-X-X-X-X-X-X-X-X-X-X-X-X-X-X-X-XXXXXXXXXXXXXXXX-|
G|--8-8-8-8-8-8-8-8-8-8-8-8-8-8-8-8-8777777777777777-|
C|--0-0-0-0-0-0-0-0-0-0-0-0-0-0-0-0-0000000000000000-|

"You Sent Us Back..."
D|------------------------------------------------------------------|
A|------------------------------------------------------------------|
F|-1212121212121212121212121212121212101010101010101010101010101010-
C|--X-X-X-X-X-X-X-X-X-X-X-X-X-X-X-X-X-X-X-X-X-X-X-X-X-X-X-X-X-X-X-X-|
G|-1010101010101010101010101010101010-8-8-8-8-8-8-8-8-8-8-8-8-8-8-8-|
C|--0-0-0-0-0-0-0-0-0-0-0-0-0-0-0-0-0-0-0-0-0-0-0-0-0-0-0-0-0-0-0-0-|

"You Took Our Wills..."
D|------------------------------------------------------------------|
A|------------------------------------------------------------------|
F|-1414141414141414141414141414141414121212121212121212121212121212-
C|--X-X-X-X-X-X-X-X-X-X-X-X-X-X-X-X-X-X-X-X-X-X-X-X-X-X-X-X-X-X-X-X-
G|-1212121212121212121212121212121212101010101010101010101010101010-
C|--0-0-0-0-0-0-0-0-0-0-0-0-0-0-0-0-0-0-0-0-0-0-0-0-0-0-0-0-0-0-0-0-

"We Offer Prayers..."
D|------------------------------------------------------------------|
A|------------------------------------------------------------------|
F|-1515151515151515151515151515151515141414141414141414141414141414-
C|--X-X-X-X-X-X-X-X-X-X-X-X-X-X-X-X-X-X-X-X-X-X-X-X-X-X-X-X-X-X-X-X-
G|-1313131313131313131313131313131313121212121212121212121212121212-
C|--0-0-0-0-0-0-0-0-0-0-0-0-0-0-0-0-0-0-0-0-0-0-0-0-0-0-0-0-0-0-0-0-

"The Reminder Is..."
D|--------------------------------------------------|
A|---------15b----------15b---------15b---------15b-|
F|--------------------------------------------------|
C|-121212-------121212-------121212------121212-----|
G|--------------------------------------------------|
C|--------------------------------------------------|

"...American Dream..."
D|------------------------------|
A|---------15b-1515151515151515-|
F|------------------------------|
C|-121212-----------------------|
G|------------------------------|
C|------------------------------|

Chorus:
"We Dont Give A Damn..."
D|------------------------------------------------------------|
A|------------------------------------------------------------|
F|------------------------------------------------------------|
C|-1--1-111-7--7-777-0--0-000-6--6-666-11--11-111111-5--5-555-|
G|-1--1-111-7--7-777-0--0-000-6--6-666-11--11-111111-5--5-555-|
C|-1--1-111-7--7-777-0--0-000-6--6-666-11--11-111111-5--5-555-|

"Right Now..."
D|------------------|
A|------------------|
F|-----------7*-----|
C|-7*---------------|
G|-----000------000-|
C|-----000------000-|
     PM...      ...

"We Dont Give A F***..."
D|------------------------------------------------------------|
A|------------------------------------------------------------|
F|------------------------------------------------------------|
C|-1--1-111-7--7-777-0--0-000-6--6-666-11--11-111111-5--5-555-|
G|-1--1-111-7--7-777-0--0-000-6--6-666-11--11-111111-5--5-555-|
C|-1--1-111-7--7-777-0--0-000-6--6-666-11--11-111111-5--5-555-|

"Right Now..."
D|---------------------------------|
A|---------------------------------|
F|---------------------------------|
C|---------------------------------|
G|-0-0-0-0-0-0-0-0-0-0-0-0-0-0-0-0-|
C|-0-0-0-0-0-0-0-0-0-0-0-0-0-0-0-0-|
PM................................

Verse:
"There Is No Flag..."
D|---------------------------------------------------|
A|---------------------------------------------------|
F|-1010101010101010101010101010101010999999999999999-
C|--X-X-X-X-X-X-X-X-X-X-X-X-X-X-X-X-XXXXXXXXXXXXXXXX-|
G|--8-8-8-8-8-8-8-8-8-8-8-8-8-8-8-8-8777777777777777-|
C|--0-0-0-0-0-0-0-0-0-0-0-0-0-0-0-0-0000000000000000-|

"To Hide The Shame..."
D|------------------------------------------------------------------|
A|------------------------------------------------------------------|
F|-1212121212121212121212121212121212101010101010101010101010101010-
C|--X-X-X-X-X-X-X-X-X-X-X-X-X-X-X-X-X-X-X-X-X-X-X-X-X-X-X-X-X-X-X-X-|
G|-1010101010101010101010101010101010-8-8-8-8-8-8-8-8-8-8-8-8-8-8-8-|
C|--0-0-0-0-0-0-0-0-0-0-0-0-0-0-0-0-0-0-0-0-0-0-0-0-0-0-0-0-0-0-0-0-|

"You Swtiched The Signs..."
D|------------------------------------------------------------------|
A|------------------------------------------------------------------|
F|-1414141414141414141414141414141414121212121212121212121212121212-
C|--X-X-X-X-X-X-X-X-X-X-X-X-X-X-X-X-X-X-X-X-X-X-X-X-X-X-X-X-X-X-X-X-
G|-1212121212121212121212121212121212101010101010101010101010101010-
C|--0-0-0-0-0-0-0-0-0-0-0-0-0-0-0-0-0-0-0-0-0-0-0-0-0-0-0-0-0-0-0-0-

"You Changed The Chanel..."
D|------------------------------------------------------------------|
A|------------------------------------------------------------------|
F|-1515151515151515151515151515151515141414141414141414141414141414-
C|--X-X-X-X-X-X-X-X-X-X-X-X-X-X-X-X-X-X-X-X-X-X-X-X-X-X-X-X-X-X-X-X-
G|-1313131313131313131313131313131313121212121212121212121212121212-
C|--0-0-0-0-0-0-0-0-0-0-0-0-0-0-0-0-0-0-0-0-0-0-0-0-0-0-0-0-0-0-0-0-

"The Reminder Is..."
D|--------------------------------------------------|
A|---------15b----------15b---------15b---------15b-|
F|--------------------------------------------------|
C|-121212-------121212-------121212------121212-----|
G|--------------------------------------------------|
C|--------------------------------------------------|

"...American Dream..."
D|------------------------------|
A|---------15b-1515151515151515-|
F|------------------------------|
C|-121212-----------------------|
G|------------------------------|
C|------------------------------|

Chorus:
"We Dont Give A Damn..."
D|------------------------------------------------------------|
A|------------------------------------------------------------|
F|------------------------------------------------------------|
C|-1--1-111-7--7-777-0--0-000-6--6-666-11--11-111111-5--5-555-|
G|-1--1-111-7--7-777-0--0-000-6--6-666-11--11-111111-5--5-555-|
C|-1--1-111-7--7-777-0--0-000-6--6-666-11--11-111111-5--5-555-|

"Right Now..."
D|------------------|
A|------------------|
F|-----------7*-----|
C|-7*---------------|
G|-----000------000-|
C|-----000------000-|
     PM...      ...

"We Dont Give A F***..."
D|------------------------------------------------------------|
A|------------------------------------------------------------|
F|------------------------------------------------------------|
C|-1--1-111-7--7-777-0--0-000-6--6-666-11--11-111111-5--5-555-|
G|-1--1-111-7--7-777-0--0-000-6--6-666-11--11-111111-5--5-555-|
C|-1--1-111-7--7-777-0--0-000-6--6-666-11--11-111111-5--5-555-|

"Right Now..."
D|-----------------------------------------|
A|-----------------------------------------|
F|-------7*--------7*--------7*--------7*--|
C|-7*--------7*--------7*--------7*--------|
G|-----------------------------------------|
C|-----------------------------------------|

Interlude:
D|-----------------------------------------------|
A|-----------------------------------------------|
F|-----------------------------------------------|
C|-----------------------------------------------|
G|-12-00000-12-00000-12-00000-12-000-10-12-13-12-|
C|-12-00000-12-00000-12-00000-12-000-10-12-13-12-|

D|--------------------------------------------|
A|--------------------------------------------|
F|--------------------------------------------|
C|--------------------------------------------|
G|-00000-12-00000-12-00000-12-000-10-12-13-12-|
C|-00000-12-00000-12-00000-12-000-10-12-13-12-|

D|---------------------------------|
A|---------------------------------|
F|---------------------------------|
C|---------------------------------|
G|-00000-12-00000-12-0000-0-12-000-|
C|-00000-12-00000-12-0000-0-12-000-|
 PM.....    .....    ....      ...

D|------------------------------------|
A|------------------------------------|
F|------------------------------------|
C|------------------------------------|
G|-12-00000-12-00000-12-0000-0-12-000-|
C|-12-00000-12-00000-12-0000-0-12-000-|
    PM.....    .....    ....      ...

Verse:
D|---------------------------------------------------|
A|---------------------------------------------------|
F|-1010101010101010101010101010101010999999999999999-
C|--X-X-X-X-X-X-X-X-X-X-X-X-X-X-X-X-XXXXXXXXXXXXXXXX-|
G|--8-8-8-8-8-8-8-8-8-8-8-8-8-8-8-8-8777777777777777-|
C|--0-0-0-0-0-0-0-0-0-0-0-0-0-0-0-0-0000000000000000-|

"No Flag Large Enough"
D|------------------------------------------------------------------|
A|------------------------------------------------------------------|
F|-1212121212121212121212121212121212101010101010101010101010101010-
C|--X-X-X-X-X-X-X-X-X-X-X-X-X-X-X-X-X-X-X-X-X-X-X-X-X-X-X-X-X-X-X-X-|
G|-1010101010101010101010101010101010-8-8-8-8-8-8-8-8-8-8-8-8-8-8-8-|
C|--0-0-0-0-0-0-0-0-0-0-0-0-0-0-0-0-0-0-0-0-0-0-0-0-0-0-0-0-0-0-0-0-|

"Shame On A Man In Cuffs"
D|------------------------------------------------------------------|
A|------------------------------------------------------------------|
F|-1414141414141414141414141414141414121212121212121212121212121212-
C|--X-X-X-X-X-X-X-X-X-X-X-X-X-X-X-X-X-X-X-X-X-X-X-X-X-X-X-X-X-X-X-X-
G|-1212121212121212121212121212121212101010101010101010101010101010-
C|--0-0-0-0-0-0-0-0-0-0-0-0-0-0-0-0-0-0-0-0-0-0-0-0-0-0-0-0-0-0-0-0-

"You Closed Your Blinds"
D|------------------------------------------------------------------|
A|------------------------------------------------------------------|
F|-1515151515151515151515151515151515141414141414141414141414141414-
C|--X-X-X-X-X-X-X-X-X-X-X-X-X-X-X-X-X-X-X-X-X-X-X-X-X-X-X-X-X-X-X-X-
G|-1313131313131313131313131313131313121212121212121212121212121212-
C|--0-0-0-0-0-0-0-0-0-0-0-0-0-0-0-0-0-0-0-0-0-0-0-0-0-0-0-0-0-0-0-0-

"The Reminder Is..."
D|--------------------------------------------------|
A|---------15b----------15b---------15b---------15b-|
F|--------------------------------------------------|
C|-121212-------121212-------121212------121212-----|
G|--------------------------------------------------|
C|--------------------------------------------------|

"...American Dream..."
D|------------------------------|
A|---------15b-1515151515151515-|
F|------------------------------|
C|-121212-----------------------|
G|------------------------------|
C|------------------------------|

Chorus:
"We Dont Give A Damn..."
D|------------------------------------------------------------|
A|------------------------------------------------------------|
F|------------------------------------------------------------|
C|-1--1-111-7--7-777-0--0-000-6--6-666-11--11-111111-5--5-555-|
G|-1--1-111-7--7-777-0--0-000-6--6-666-11--11-111111-5--5-555-|
C|-1--1-111-7--7-777-0--0-000-6--6-666-11--11-111111-5--5-555-|

"Right Now..."
D|------------------|
A|------------------|
F|-----------7*-----|
C|-7*---------------|
G|-----000------000-|
C|-----000------000-|
     PM...      ...

"We Dont Give A F***..."
D|------------------------------------------------------------|
A|------------------------------------------------------------|
F|------------------------------------------------------------|
C|-1--1-111-7--7-777-0--0-000-6--6-666-11--11-111111-5--5-555-|
G|-1--1-111-7--7-777-0--0-000-6--6-666-11--11-111111-5--5-555-|
C|-1--1-111-7--7-777-0--0-000-6--6-666-11--11-111111-5--5-555-|

OUTRO:
"Right Now"
D|--------------------------------|
A|--------------------------------|
F|-----7*------7*------7*-----7*--|
C|-7*------7*------7*-----7*------|
G|--------------------------------|
C|--------------------------------|

7.MR JACK

Tunning: Drop D down a whole step often known as Drop C (CGCFAD)

Intro (altered from base)
D|------------------------------------------------------------------------------|
A|------------------------------------------------------------------------------|
F |-----------------------------------------------------------------------------|
C|------------------------------------------------------------------------------|
G|-----8\7-----7\5-----5-------5------6-5------3-------3-------5-------5-----5--|
C|--0-------0-------0-------0-------0--------0-------0-------0-------0------0---|    x8

Start this at end of 4th time (listen for timing)

D|----------------------------------------------------------------------------------------|
A|------8/7---7-7-7-7-7-7-7/10--10-10----10-10-10-10-10/12-12-12-----12-12-12-12-12/15----|
F |-------------7-7-7-7-7-7-7/10-10-10-----10-10-10-10-10/12-12-12-----12-12-12-12-12/15--|
C|-------------7-7-7-7-7-7-7/10-10-10-10-10-10-10-10-10/12-12-12-12-12-12-12-12-12/15-----|
G|----------------------------------------------------------------------------------------|
C|----------------------------------------------------------------------------------------|

D|-------------------------------------------------------------------|
A|-----------15-15-15-15------17----17------17-----15-15\------------|
F |-----------15-15-15-15------15----15------15-----15-15\-----------|
C|------------15-15-15-15--15--------------15------------15\---------|
G|-------------------------------------------------------------------|
C|-------------------------------------------------------------------|

D|---------------------------------------------------------------------------------------|
A|-------------7-7----7-7-7-7/10-10-10-----10-10-10-10-10--12-12-----12-12-12-12-12/15---|
F |-------------7-7-7-7----7-7/10-10-10-----10-10-10-10-10--12-12-----12-12-12-12-12/15--|
C|-------------7-7----7----7-7/10-10-10-10-10-10-10-10-10--12-12-12-12-12-12-12-12/15----|
G|---------------------------------------------------------------------------------------|
C|---------------------------------------------------------------------------------------|

These bits finish off intro
D|----------------------------------------------|
A|-----------15-----15-15-------17--------------|
F |-----------15-----15-15-------15-------------|
C|------------15-15-15-15--15--15---------------|
G|----------------------------------------------|
C|----------------------------------------------|

D|------------------------------------------------------------------------|
A|------------------------------------------------------------------------|
F |-----------------------------------------------------------------------|
C|------------------------------------------------------------------------|
G|-----8\7-----7\5-----5-------5------6-5------3-------3-------5----------|
C|--0-------0-------0-------0-------0--------0-------0-------0------------|

Interlude bit before chorus with distortion

D|-----------------------------------------------------------------------------|
A|-----------------------------------------------------------------------------|
F |----------------------------------------------------------------------------|
C|--0----2-----------3---3---3---3------0----2----------3---3---3--------------|
G|--0----0-----3----1---0---1---0------0----0-----3----1---0---1---------------|
C|--0----------3--------------------------0----------3-------------------------|   x4
Verse 1
D|------------------------------------------------------------------------------|
A|------------------------------------------------------------------------------|
F |-----------------------------------------------------------------------------|
C|--0----2-----------3---3---3---3------0----2----------3---3---3---------------|
G|--0----0-----3----1---0---1---0------0----0-----3----1---0---1----------------|
C|--0----------3--------------------------0----------3--------------------------|
 pm ----------------------------------------------------------------------------|   x4
Chorus
D|-----------------------------------------------------------------------------|
A|-----------------------------------------------------------------------------|
F |----------------------------------------------------------------------------|
C|--0----2-----------3---3---3---3------0----2----------3---3---3--------------|
G|--0----0-----3----1---0---1---0------0----0-----3----1---0---1---------------|
C|--0----------3--------------------------0----------3-------------------------|   x2
Verse 2
D|------------------------------------------------------------------------------|
A|------------------------------------------------------------------------------|
F |-----------------------------------------------------------------------------|
C|--0----2-----------3---3---3---3------0----2----------3---3---3---------------|
G|--0----0-----3----1---0---1---0------0----0-----3----1---0---1----------------|
C|--0----------3--------------------------0----------3--------------------------|
 pm ----------------------------------------------------------------------------|   x4
Chorus
D|-----------------------------------------------------------------------------|
A|-----------------------------------------------------------------------------|
F |----------------------------------------------------------------------------|
C|--0----2-----------3---3---3---3------0----2----------3---3---3--------------|
G|--0----0-----3----1---0---1---0------0----0-----3----1---0---1---------------|
C|--0----------3--------------------------0----------3-------------------------|   x4
(Note: For the verse there are some tricky mute string picks, listen to song for them)

Bridge
D|----13---12---10---10---11---10---8---8---10---10---10------------------|
A|-----x----x-----x----x----x-----x----x---x---x-----x-----x--------------|
F |----10---9-----7----7----8-----7----5---5---7-----7-----7--------------|
C|------------------------------------------------------------------------|
G|------------------------------------------------------------------------|
C|--0---------------------------------------------------------------------|  x6
One more time with this ending
D|----13\12---10---10---11---10---8---8---10---10---10---10---10---10---10---10---------|
A|-----x--x-----x----x----x-----x----x---x---x-----x-----x----x-----x----x-----x-----x--|
F |----10\9-----7----7----8-----7----5---5---7-----7-----7----7-----7-----7----7-----7--|
C|--------------------------------------------------------------------------------------|
G|--------------------------------------------------------------------------------------|
C|--0-----------------------------------------------------------------------------------|

D|----------------------------------------------------------------------------|
A|----------------------------------------------------------------------------|
F |---------------------------------------------------------------------------|
C|--0-0---2-2-----------3---3---3----0-0----2-2----------3---3---3------------|
G|--0-0---0--2---3-3---1---0---1----0-0----0-0--3-3----1---0---1--------------|
C|--0-0-----------3-3-----------------0-0----------3-3------------------------|     x3
And 4th time with different ending

D|----------------------------------------------------------------------------|
A|----------------------------------------------------------------------------|
F |---------------------------------------------------------------------------|
C|--0-0---2-2-----------3---3---3----0-0----2-2----------3---3---3------------|
G|--0-0---0--2---3-3---1---0---1----0-0----0-0--3------1---0---1--------------|
C|--0-0-----------3-3-----------------0-0----------3--------------------------|
Heavy Part
D|-------------------------------------------------------------------------------|
A|-------------------------------------------------------------------------------|
F |------------------------------------------------------------------------------|
C|-------------------------------------------------------------------------------|
G|--0-1-0-1-0-1-----------0----------0----0-1-0-1-0-1-0-0-0-0-0-0----------------|
C|--0-1-0-1-0-1-0-0-0-0-0-0-0-0-0-0---0-1-0-1-0-1-0-0-0-0-0-0--------------------|
                                                                          x 2
D|-------------------------------------------------------------------------------|
A|-------------------------------------------------------------------------------|
F |------------------------------------------------------------------------------|
C|-------------------------------------------------------------------------------|
G|--0-1-0-1-0-1-----------0----------0----0-1-0-1-0-1-0-0-0-0--------------------|
C|--0-1-0-1-0-1-0-0-0-0-0-0-0-0-0-0---0-1-0-1-0-1-0-0-0-0------------------------|

D|--------------------------------------------|
A|--------------------------------------------|
F |-------------------------------------------|
C|--------------2-2---------------3-----------|
G|--0-0-0-0---0-0---3-3-3-3---1---------------|
C|--0-0-0-0----------3-3-3-3------------------|      x3
     pm------|            pm------------------|

Final bit
D|--------------------------------|
A|--------------------------------|
F |------2-------3----------------|
C|--0---2---3---3-----------------|
G|--0---0---3---1-----------------|
C|--0-------3--------------   x 5-|

8.IEAIAIO

Tuning- Drop C

d-16-p10h13-16p10h13-16p10h13-16p10h13-16p10h13-16p10---|
a-------------------------------------------------------|
f-------------------------------------------------------|
c-------------------------------------------------------|
g-------------------------------------------------------|
c-------------------------------------------------------|

d-16p10h13-16p10h13-16p10-----16p10h13-16p10h13-16------|
a-------------------------h13---------------------------|
f-------------------------------------------------------|
c-------------------------------------------------------|
g-------------------------------------------------------|
c-------------------------------------------------------|

d-16p10h13-16p10h13-16p10h13-16p10h13-16p10h13-16p10h13-16p10h13--|
a-----------------------------------------------------------------|
f-----------------------------------------------------------------|
c-----------------------------------------------------------------|
g-----------------------------------------------------------------|
c-----------------------------------------------------------------|

d-16p10h13-16p10h13-16p10h13-16p10h13-16p10h13-16p10h13-16p10h13-16---|
a---------------------------------------------------------------------|
f---------------------------------------------------------------------|
c---------------------------------------------------------------------|
g---------------------------------------------------------------------|
c---------------------------------------------------------------------|

Interlude:

Fig. 1 (gtr. 1&2)

x2
d-----------------------------------------------------------------|
a-----------------------------------------------------------------|
f-----------------------------------------------------------------|
c-----------------------------------------------------------------|
g-1-0-----0---0-0-1-0-----0---0-0-1-0-----0---0-0-1-0-----0---0-0-|
c-1-0-----0---0-0-1-0-----0---0-0-1-0-----0---0-0-1-0-----0---0-0-|

Fig. 2 (gtr. 2)

d-----------------------------------------------------------------|
a-----------------------------------------------------------------|
f-----------------------------------------------------------------|
c-----------------------------------------------------------------|
g-1-0-----0---0-0-1-0-----0---0-0-1-0-----0---0-0-1-0-----0---0-0-|
c-1-0-----0---0-0-1-0-----0---0-0-1-0-----0---0-0-1-0-----0---0-0-|

gtr. 1 pm

d-----------------------------------------------------------------|
a-----------------------------------------------------------------|
f-----------------------------------------------------------------|
c-----------------------------------------------------------------|
g-----------------------------------------------------------------|
c-1-0-0-0-0-0-0-0-1-0-0-0-0-0-0-0-1-0-0-0-0-0-0-0-1-0-0-0-0-0-0-0-|

Fig. 2 (cont)

d-----------------------------------------------------------------|
a-----------------------------------------------------------------|
f-----------------------------------------------------------------|
c-----------------------------------------------------------------|
g-1-0-----0---0-0-1-0-----0---0-0-1-0-----0---0-0-1-0-----0-------|
c-1-0-----0---0-0-1-0-----0---0-0-1-0-----0---0-0-1-0-----0-------|

gtr. 1 pm

d-----------------------------------------------------------------|
a-----------------------------------------------------------------|
f-----------------------------------------------------------------|
c-----------------------------------------------------------------|
g-----------------------------------------------------------------|
c-1-0-0-0-0-0-0-0-1-0-0-0-0-0-0-0-1-0-0-0-0-0-0-0-1-0-0-0-0-------|

Verses:

x2, pm
d-------------------------------------------------|
a-------------------------------------------------|
f-------------------------------------------------|
c-------------------------------------------------|
g-------------------------------------------------|
c-12-10-12-10-12-10-12-10-12-10-12-10-12-10-12-10-|

gtr. 2 (gtr. 1 plays Riff an Octave up. 12&13 fret)

d-----------------------------------------------------------------|
a-----------------------------------------------------------------|
f-----------------------------------------------------------------|
c-----------------------------------------------------------------|
g-1-0-----0---0-0-1-0-----0---0-0-1-0-----0---0-0-1-0-----0---0-0-|
c-1-0-----0---0-0-1-0-----0---0-0-1-0-----0---0-0-1-0-----0---0-0-|

x2, pm
d-------------------------------------------------|
a-------------------------------------------------|
f-------------------------------------------------|
c-------------------------------------------------|
g-------------------------------------------------|
c-12-10-12-10-12-10-12-10-12-10-12-10-12-10-12-10-|

gtr. 2 (gtr. 1 plays Riff an Octave up. 12&13 fret)

d-----------------------------------------------------------------|
a-----------------------------------------------------------------|
f-----------------------------------------------------------------|
c-----------------------------------------------------------------|
g-1-0-----0---0-0-1-0-----0---0-0-1-0-----0---0-0-1-0-----0-------|
c-1-0-----0---0-0-1-0-----0---0-0-1-0-----0---0-0-1-0-----0-------|

x2, pm
d-------------------------------------------------|
a-------------------------------------------------|
f-------------------------------------------------|
c-15-14-15-14-------------15-14-15-14-------------|
g-------------------------------------------------|
c-------------15-14-15-14-------------15-14-15-14-|

gtr. 2 (gtr. 1 plays Riff an Octave up. 12&13 fret)

d-----------------------------------------------------------------|
a-----------------------------------------------------------------|
f-----------------------------------------------------------------|
c-----------------------------------------------------------------|
g-1-0-----0---0-0-1-0-----0---0-0-1-0-----0---0-0-1-0-----0---0-0-|
c-1-0-----0---0-0-1-0-----0---0-0-1-0-----0---0-0-1-0-----0---0-0-|

x2, pm
d-------------------------------------------------|
a-------------------------------------------------|
f-------------------------------------------------|
c-12-10-12-10-------------12-10-12-10-------------|
g-------------------------------------------------|
c-------------12-10-12-10-------------12-10-12-10-|

gtr. 2 (gtr. 1 plays Riff an Octave up. 12&13 fret)

d-----------------------------------------------------------------|
a-----------------------------------------------------------------|
f-----------------------------------------------------------------|
c-----------------------------------------------------------------|
g-1-0-----0---0-0-1-0-----0---0-0-1-0-----0---0-0-1-0-----0-------|
c-1-0-----0---0-0-1-0-----0---0-0-1-0-----0---0-0-1-0-----0-------|

Chorus:

pm
d-----------------------------------------------------------------|
a-----------------------------------------------------------------|
f-----------------------------------------------------------------|
c-----------------------------------------------------------------|
g-----------------------------------------------------------------|
c-0-0-0-0-0---3-3-2-2-2-2-0-0-0-0-5-5-5-5-5-5-3-3-2-2-2-2-0-0-0-0-|

d-----------------------------------------------------------------|
a-----------------------------------------------------------------|
f-----------------------------------------------------------------|
c-----------------------------------------------------------------|
g-----0-----------------------------------------------------------|
c-0---0---0---3-3-2-2-2-2-0-0-0-0-5-5-5-5-5-5-3-3-2-2-2-2-0-0-0-0-|

1st Time: Fig. 2
2nd Time: Fig. 1

Fig. 3 x2

d-----------------------------------------------------------------|
a-----------------------------------------------------------------|
f-----------------------------------------------------------------|
c-3-------------------------------5-------------------------------|
g-3-------------------------------5-------------------------------|
c-3-------0-0-0-0-0-0-0-0-0-0-0-0-5-------0-0-0-0-0-0-0-0-0-0-0-0-|

Fig. 2

Interlude:

gtr. 1

d---------5------5---6-5--------------------5---------------------|
a----------------------------------------------8~~~~~~-----<7><7>-|
f-7---8-7-----------------7~~~~-7---8-7--7-------------x----------|
c--------------------------------------------------------0--------|
g-----------------------------------------------------------------|
c-----------------------------------------------------------------|

gtr. 2

d------------------------------------------------------------------|
a---------10~~~~-10--11--------------------10--8~~~~~--------------|
f-7---8-7---------------0-7~~~~-7---8-7--7-------------------------|
c--------------------------------------------------------16--7-----|
g------------------------------------------------------------------|
c------------------------------------------------------------------|

gtr. 1

d---------5------5---6-5--------------------5--6----6-6-----------|
a---------------------------------------------------------------x-|
f-7---8-7-----------------7~~~~-7---8-7--7---------------------x--|
c-------------------------------------------------------------x---|
g------------------------------------------------------------x----|
c-----------------------------------------------------------------|

gtr. 2

d-----------------------------------------------------------------|
a---------10~~~~-10--11--------------------10-11~~~~~~~~~~~~~~~~--|
f-7---8-7---------------0-7~~~~-7---8-7--7------------------------|
c-----------------------------------------------------------------|
g-----------------------------------------------------------------|
c-----------------------------------------------------------------|

Bridge:

gtr. 2 pm

x2
d-----------------------------------------------------------------|
a-----------------------------------------------------------------|
f-----------------------------------------------------------------|
c-----------------------------------------------------------------|
g-----------------------------------------------------------------|
c-0---1-0---1-0--1-0--------------0---1-0---1-0--1-0--------------|

gtr. 1 pm

x2
d-----------------------------------------------------------------|
a-----------------------------------------------------------------|
f-7---8-7---8-7--8-7---5--5-7-7-7-7---8-7---8-7--8-7---5--5-7-7-7-|
c-----------------------------------------------------------------|
g-----------------------------------------------------------------|
c-----------------------------------------------------------------|

then,

gtr. 2 pm

d-----------------------------------------------------------------|
a-7---8-7---8-7--8-7--------7-7-7-7---8-7---8-7--8-7--------7-7-7-|
f-7---8-7---8-7--8-7---5--5-7-7-7-7---8-7---8-7--8-7---5--5-7-7-7-|
c-----------------------------------------------------------------|
g-----------------------------------------------------------------|
c-----------------------------------------------------------------|

gtr. 1 pm

d-----------------------------------------------------------------|
a-----------------------------------------------------------------|
f-----------------------------------------------------------------|
c-----------------------------------------------------------------|
g-----------------------------------------------------------------|
c-0---1-0---1-0--1-0----0-0-0-0-0-0---1-0---1-0--1-0----0-0-0-0-0-|

gtr. 2

d------------------------------------------------------------------|
a-7---8-7---8-7--8-7--------7-7-7-7---8-7---8-7--8-7---------------|
f-7---8-7---8-7--8-7---5--5-7-7-7-7---8-7---8-7--8-7---------------|
c------------------------------------------------------0v----------|
g------------------------------------------------------0v----------|
c------------------------------------------------------------------|

gtr. 1 pm

d-----------------------------------------------------------------|
a-----------------------------------------------------------------|
f-----------------------------------------------------------------|
c-----------------------------------------------------------------|
g-----------------------------------------------------------------|
c-0---1-0---1-0--1-0----0-0-0-0-0-0---1-0---1-0--1-0--------------|

Chorus:

x2
d------------------------------------------|
a------------------------------------------|
f------------------------------------------|
c-0------3--2----0----5------3--2----0-----|
g-0------3--2----0----5------3--2----0-----|
c-0------3--2----0----5------3--2----0-----|

ah      e  ay   ah   hey    ah oh ...

Fig. 1
Fig. 3
Fig. 1, then

d-----------------------------------------------------------------|
a-----------------------------------------------------------------|
f-----------------------------------------------------------------|
c-----------------------------------------------------------------|
g-1-0-----0---0-0-1-0-----0---0-0-1-0-----0---0-0-1-0-----0-------|
c-1-0-----0---0-0-1-0-----0---0-0-1-0-----0---0-0-1-0-----0-------|

9.36

Tuning- Drop C

Intro 1x
D|----0---0---0---0---0---0---0-----------------|
A|--0---3---2---4---0---3---2---2/6-------------|
F|----------------------------------------------|
C|----------------------------------------------|
G|----------------------------------------------|
C|----------------------------------------------|

Chorus 2x

D|----------------------------------|
A|----------------------------------|
F|----------------------------------|
C|----------------------------------|
G|--3-0-0-0-3-0-0-0-2-0-0-0-4-0-0-0-|
C|--3-0-0-0-3-0-0-0-2-0-0-0-4-0-0-0-|
    . . . . . . . . . . . . . . . . PM

D|----------------------------------|
A|----------------------------------|
F|----------------------------------|
C|----------------------------------|
G|--3-0-0-0-3-0-0-0-2-0-0-0-6-0-0-0-|
C|--3-0-0-0-3-0-0-0-2-0-0-0-6-0-0-0-|
    . . . . . . . . . . . . . . . . PM


Verse 1 2x
D|-0-0-0-0-0-0-0-0-0-0-0-0-0-0-0-0--------------|
A|-0-0-3-3-2-2-4-4-0-0-3-3-2-2-6-6--------------|
F|----------------------------------------------|
C|----------------------------------------------|
G|----------------------------------------------|
C|----------------------------------------------|

Chorus 2x
D|----------------------------------|
A|----------------------------------|
F|----------------------------------|
C|----------------------------------|
G|--3-0-0-0-3-0-0-0-2-0-0-0-4-0-0-0-|
C|--3-0-0-0-3-0-0-0-2-0-0-0-4-0-0-0-|
    . . . . . . . . . . . . . . . . PM

D|----------------------------------|
A|----------------------------------|
F|----------------------------------|
C|----------------------------------|
G|--3-0-0-0-3-0-0-0-2-0-0-0-6-0-0-0-|
C|--3-0-0-0-3-0-0-0-2-0-0-0-6-0-0-0-|
    . . . . . . . . . . . . . . . . PM

Verse 2 1x
D|-0-0-0-0-0-0-0-0-|
A|-0-0-3-3-2-2-4-4-|
F|-----------------|
C|-----------------|
G|-----------------|
C|-----------------|

D|----------------------------------|
A|----------------------------------|
F|----------------------------------|
C|----------------------------------|
G|--3-0-0-0-3-0-0-0-2-0-0-0-4-0-0-0-|
C|--3-0-0-0-3-0-0-0-2-0-0-0-4-0-0-0-|
    . . . . . . . . . . . . . . . . PM

D|-0-0-0-0-0-0--0--|
A|-0-0-3-3-2-2-/6--|
F|-----------------|
C|-----------------|
G|-----------------|
C|-----------------|

D|----------------------------------|
A|----------------------------------|
F|----------------------------------|
C|----------------------------------|
G|--3-0-0-0-3-0-0-0-2-0-0-0-6-0-0-0-|
C|--3-0-0-0-3-0-0-0-2-0-0-0-6-0-0-0-|
    . . . . . . . . . . . . . . . . PM

10.PICTURES

Tuning: Drop D, Down 1 Step (C,G,C,F,A,D)

INTRO:
|------------------|
|------------------|
|------------------|
|-1-0-1-3--1-0-1-3-|
|-1-0-1-3--1-0-1-3-|
|-1-0-1-3--1-0-1-3-|

INTRO 2:
|----------------------------------|
|----------------------------------|
|----------------------------------|
|-1-0-1-3----------1-0-1-3---------|
|-1-0-1-3-4-331-3--1-0-1-3-6-443-4-|
|-1-0-1-3-4-331-3--1-0-1-3-6-443-4-|
pm        . ... .          . ... .

VERSE:
|----------------------------------------------------------------|
|----------------------------------------------------------------|
|----------------------------------------------------------------|
|-7-7-7-7-7-7-7-------------------7-7-7-7-7-7-7------------------|
|-5-5-5-5-5-5-5--1-0-1-3-4-331-3--5-5-5-5-5-5-5--1-0-1-3-6-443-4-|
|----------------1-0-1-3-4-331-3-----------------1-0-1-3-6-443-4-|
pm                       . ... .                         . ... .

|---------------------------------------------------------------|
|---------------------------------------------------------------|
|---------------------------------------------------------------|
|-7-7-7-7-7-7-7-------------------7-7-7-7-7-7-7---7-7-7-7-7-7-7-|
|-5-5-5-5-5-5-5--1-0-1-3-4-331-3--5-5-5-5-5-5-5---5-5-5-5-5-5-5-|
|----------------1-0-1-3-4-331-3--------------------------------|
pm                       . ... .

|-------------------------------|
|-------------------------------|
|---------------------7-7-7-7-7-|
|-7-7-7-7-7-7-7---7-7-7-7-7-7-7-|
|-5-5-5-5-5-5-5---5-5-5-5-5-5-5-|
|-------------------------------|

BRIDGE:
|---------------------------|
|---------------------------|
|-7--12-11--15-14--12-11--8-|
|-X---X--X---X--X---X--X--X-|
|-5--10--9--13-12--10--9--6-|
|---------------------------|

BRIDGE 2:
|----------------------------------------|
|----------------------------------------|
|----------------------------------------|
|-1-0--5-4--8-7--5-4--1-0--5-4--8-7--5-4-|
|-1-0--5-4--8-7--5-4--1-0--5-4--8-7--5-4-|
|-1-0--5-4--8-7--5-4--1-0--5-4--8-7--5-4-|

BRIDGE 3: (palm mute)
|-----------------------------------------------------------------|
|-----------------------------------------------------------------|
|-----------------------------------------------------------------|
|-----------------------------------------------------------------|
|-1-1-0-0-0-0-0-0-5-5-4-4-4-4-4-4-8-8-7-7-7-7-7-7-5-5-4-4-4-4-4-4-|
|-1-1-0-0-0-0-0-0-5-5-4-4-4-4-4-4-8-8-7-7-7-7-7-7-5-5-4-4-4-4-4-4-|

OUTRO:
|-----------------------------------|
|-----------------------------------|
|-7--12-11--15-14--12-7-7-7-7-7-7-7-|
|-X---X--X---X--X---X-7-7-7-7-7-7-7-|
|-5--10--9--13-12--10-5-5-5-5-5-5-5-|
|-----------------------------------|

11.HIGHWAY SONG

Tuning- Drop C

Intro
|-----
|-----
|-----
|-----
|-0-0-
|-0-0-
p.m..

Riff 1
|-----------------|
|-----------------|
|-----------------|
|-----000-----000-|
|-0-0-000-0-0-000-|
|-0-0-000-0-0-000-|
p.m...............

Verse
|-5-------4--------------------|
|-6-------5-------2-------5----|
|-7-------6-------2-------5----|
|-----------------2-------5----|
|-----------------0-------3----|
|------------------------------|

|----------------------------------------4----------------------------|
|-6-----8-----6-----5-----------5-----------5-------------2------5----|
|---7-----7-----7-----7-----------6------------6----------2------5----|
|-----7-----7-----7-------------------------------6-------2------5----|
|-------------------------5-4-----------------------------0------3----|
|---------------------------------------------------------------------|
-
Chorus
|------------------------------------------------------------------------|
|------------------------------------------------------------------------|
|------------------------------------------------------------------------|
|-0-7-8-70-077-8-7----6-7-6---66-7-6----------------------5-6-5---55-6-5-|
|-------------------4------4-4--------0-7-8-70-077-8-7--3------3-3-------|
|------------------------------------------------------------------------|
p.m......................................................................
(Repeat the first three segments once more and then instead of what's exactly
above "instead of what's exactly" do this:

|---------|
|---------|
|-5-5-5-5-|
|-5-5-5-5-|
|-3-3-3-3-|
|---------|

Interlude/Solo
|---------------------------------------------------|
|-----15-17----15----17-15-----15-17----15----17-15-|
|-14--------14----14--------13-------13----13-------|
|---------------------------------------------------|
|---------------------------------------------------|
|---------------------------------------------------|

|--------------------------------------------------|
|----18-17----18----18-17-----18-17----18----18-17-|
|-15-------15----15--------14-------14----14-------|
|--------------------------------------------------|
|--------------------------------------------------|
|--------------------------------------------------|

Interlude 2
|-----------------|
|-----------------|
|-----------------|
|-----------------|
|-----------------|
|-0---11---7---10-|

12.FUCK THE SYSTEM

Tuning- Drop C

Intro
D-------10p8------|
A-----10----------|
F---10------------| X3
C-10--------------|
G-----------------|
C-----------------|

D------8h10-8h10-8----------|
A---------------------------|
F---10----------------------| X1
C-10------------------------|
G---------------------------|
C---------------------------|

D-----------------------------------|
A-----------------------------------|
F-----------------------------------| X4 (Last 2 Times Palm Mute)
C-0-2-3-2-0-2-3-2-0-2-3-2-0-2-3-2---|
G-0-2-3-2-0-2-3-2-0-2-3-2-0-2-3-2---|
C-0-2-3-2-0-2-3-2-0-2-3-2-0-2-3-2---|

D-------------------------------10-8-10-8---|
A---------------------10-8-10-8-------------|
F-----------10-8-10-8-----------------------| X1
C-10-8-10-8---------------------------------|
G-------------------------------------------|
C-------------------------------------------|

Verse
D----------------------------------------|
A----------------------------------------|
F----------------------------------------| X6
C----------------------------------------|
G-3-3-1--3-3-1--3-3-1--3-3-1-------------|
C----------------------------------------|
D-----18-----18-----18------18-----------|     ^
A----------------------------------------|
F----------------------------------------| (On 4th And Second last Measure)
C----------------------------------------|
G----------------------------------------|
C----------------------------------------|

D------------------------------|
A------------------------------|
F------------------------------| X4
C------------------------------|
G-3-1--3-1--3-1--3-1-----------|
C------------------------------|

D------------------------------|
A------------------------------|
F------------------------------| X4
C------------------------------|
G-3-3-1--3-3-1--3-3-1--3-3-1---|
C------------------------------|

Chorus
D-------------------------------------|
A-------------------------------------|
F-------------------------------------|
C-0-2-3-0--8--8--0-2-3-0--10-8-10-8---|
G-0-2-3-0--8--8--0-2-3-0--10-8-10-8---|
C-0-2-3-0--8--8--0-2-3-0--10-8-10-8---|

D-------------------------------------|
A-------------------------------------|
F-------------------------------------|
C-0-2-3-0--8--8--10-8-10-8-10-8-10----|
G-0-2-3-0--8--8--10-8-10-8-10-8-10----|
C-0-2-3-0--8--8--10-8-10-8-10-8-10----|

D-------------------------------------|
A-------------------------------------|
F-------------------------------------|
C-0-2-3-0--8--8--0-2-3-0--10-8-10-8---|
G-0-2-3-0--8--8--0-2-3-0--10-8-10-8---|
C-0-2-3-0--8--8--0-2-3-0--10-8-10-8---|

D------------------------------------|
A------------------------------------|
F------------------------------------|
C-0-2-3-0--8--8----------------------|
G-0-2-3-0--8--8----------------------|
C-0-2-3-0--8--8----------------------|

D------------------------------------|
A------------------------------------|
F------------------------------------| X2
C-0-2-3-2-0-2-3-2-0-2-3-2-0-2-3-2----|
G-0-2-3-2-0-2-3-2-0-2-3-2-0-2-3-2----|
C-0-2-3-2-0-2-3-2-0-2-3-2-0-2-3-2----|

Pre-Verse

D----------------------10-10-8---|
A---------------10-10-8----------|
F--------10-10-8-----------------| X2
C-10-10-8------------------------|
G--------------------------------|
C--------------------------------|

Verse

Chorus

Bridge
D----------------------10-10-8---|
A---------------10-10-8----------|
F--------10-10-8-----------------| X2
C-10-10-8------------------------|
G--------------------------------|
C--------------------------------|

D---------------------------------------------------|
A---------------------------------------------------|
F----------------------------------------10-8-10-8--|
C-10-8-10-8--10-10-8-10-10-8--10-8-10-8-------------|
G-10-8-10-8-------------------10-8-10-8-------------|
C-10-8-10-8-------------------10-8-10-8-------------|

D----------------------------------10-8-10-8--------|
A------------10-8-10-8------------------------------|
F---------------------------------------------------|
C-10-8-10-8-------------10-8-10-8-------------------|
G-10-8-10-8-------------10-8-10-8-------------------|
C-10-8-10-8-------------10-8-10-8-------------------|

D---------------------------------------------------------|
A---------------------------------------------------------|
F----------------------------------------10-10-8-10-10-8--|
C-10-8-10-8--10-10-8-10-10-8--10-8-10-8-------------------|
G-10-8-10-8-------------------10-8-10-8-------------------|
C-10-8-10-8-------------------10-8-10-8-------------------|

D---------------------------------------------------|
A---------------------------------------------------|
F----------------------------------10-10-8-10-10-8--|
C-10-8-10-8--10-8-10-8--10-8-10-8-------------------|
G-10-8-10-8-------------10-8-10-8-------------------|
C-10-8-10-8-------------10-8-10-8-------------------|

D----------------------------------10-10-8-10-10-8--|
A------------10-8-10-8------------------------------|
F---------------------------------------------------|
C-10-8-10-8-------------10-8-10-8-------------------|
G-10-8-10-8-------------10-8-10-8-------------------|
C-10-8-10-8-------------10-8-10-8-------------------|

D---------------------------------------------------|
A---------------------------------------------------|
F----------------------------------------10-8-10-8--|
C-10-8-10-8--10-10-8-10-10-8--10-8-10-8-------------|
G-10-8-10-8-------------------10-8-10-8-------------|
C-10-8-10-8-------------------10-8-10-8-------------|

D----------------------------------------10-8-10-8--|
A------------10-10-8-10-10-8------------------------|
F---------------------------------------------------|
C-10-8-10-8-------------------10-8-10-8-------------|
G-10-8-10-8-------------------10-8-10-8-------------|
C-10-8-10-8-------------------10-8-10-8-------------|

Ending
D------------------------------|
A------------------------------|
F------------------------------|
C------------------------------|
G-3-3-1--3-3-1--3-3-1--3-3-1---|
C------------------------------|

D----------------------------------|
A----------------------------------|
F-----18------18------18------18---| (On 4th Measure)
C----------------------------------|
G----------------------------------|
C----------------------------------|

D-----------------------------------|
A-----------------------------------|
F-----------------------------------| X2
C-0-2-3-2-0-2-3-2-0-2-3-2-0-2-3-2---|
G-0-2-3-2-0-2-3-2-0-2-3-2-0-2-3-2---|
C-0-2-3-2-0-2-3-2-0-2-3-2-0-2-3-2---|

13.EGO BRAIN

tuning: drop C

D:--------------------------------------------------|
A:-------8------------------------8-----------------|
F:-----9---9--------------------9---9---------------|
C:---9-------9-----9-----9----9-------9-----9-----9-|
G:-7-------------7-----7----7-------------7-----7---|
C:-------------7-----7------------------7-----7-----|

D:-------------------------------------------------------|
A:-------8-----------------------------------------------|
F:-----9---9---------------------12-------12-------------|
C:---9-------9-----9-----9----12-------12--------5-----7-|
G:-7-------------7-----7---10-------10---------5-----7---|
C:-------------7-----7-----------------------5-----7-----|

D:--------------------------|
A:--------------------------|
F:--------------------------|
C:-5-7-9-3--2--3--2-3-2-3-2-|
G:-5-7-9-3--2--3--2-3-2-3-2-|
C:-5-7-9-3--2--3--2-3-2-3-2-| [ you do the strumming ;) ]

D:---------------------------------------------------------------------|
A:---------------------------------------------------------------------|
F:----------------------------------------2----------------------------|
C:-2-2h3p2---------2-2h3p2---------3-3h5p3--5-3-5-3h5p3-2-2h3p2--------|
G:-2-------3-2h3p2-2-------3-2h3p2-3--------------------2-------3-2h3p2|
C:-2---------------2---------------3--------------------2--------------|X2

D:--------------------------------------------------|
A:-------8------------------------8-----------------|
F:-----9---9--------------------9---9---------------|
C:---9-------9-----9-----9----9-------9-----9-----9-|
G:-7-------------7-----7----7-------------7-----7---|
C:-------------7-----7------------------7-----7-----|

D:-------------------------------------------------------|
A:-------8-----------------------------------------------|
F:-----9---9---------------------12-------12-------------|
C:---9-------9-----9-----9----12-------12--------5-----7-|
G:-7-------------7-----7---10-------10---------5-----7---|
C:-------------7-----7-----------------------5-----7-----|

D:--------------------------|
A:--------------------------|
F:--------------------------|
C:-5-7-9-3--2--3--2-3-2-3-2-|
G:-5-7-9-3--2--3--2-3-2-3-2-|
C:-5-7-9-3--2--3--2-3-2-3-2-|

D:---------------------------------------------------------------------|
A:---------------------------------------------------------------------|
F:----------------------------------------2----------------------------|
C:-2-2h3p2---------2-2h3p2---------3-3h5p3--5-3-5-3h5p3-2-2h3p2--------|
G:-2-------3-2h3p2-2-------3-2h3p2-3--------------------2-------3-2h3p2|
C:-2---------------2---------------3--------------------2--------------|X2

D:--------------------------------------------------|
A:-------8------------------------8-----------------|
F:-----9---9--------------------9---9---------------|
C:---9-------9-----9-----9----9-------9-----9-----9-|
G:-7-------------7-----7----7-------------7-----7---|
C:-------------7-----7------------------7-----7-----|

D:-------------------------------------------------------|
A:-------8-----------------------------------------------|
F:-----9---9---------------------12-------12-------------|
C:---9-------9-----9-----9----12-------12--------5-----7-|
G:-7-------------7-----7---10-------10---------5-----7---|
C:-------------7-----7-----------------------5-----7-----|

D:--------------------------|
A:--------------------------|
F:--------------------------|
C:-5-7-9-3--2--3--2-3-2-3-2-|
G:-5-7-9-3--2--3--2-3-2-3-2-|
C:-5-7-9-3--2--3--2-3-2-3-2-|

D:---------------------------------------------------------------------|
A:---------------------------------------------------------------------|
F:----------------------------------------2----------------------------|
C:-2-2h3p2---------2-2h3p2---------3-3h5p3--5-3-5-3h5p3-2-2h3p2--------|
G:-2-------3-2h3p2-2-------3-2h3p2-3--------------------2-------3-2h3p2|
C:-2---------------2---------------3--------------------2--------------|X2

D:--------------------------------------------------|
A:-------8------------------------8-----------------|
F:-----9---9--------------------9---9---------------|
C:---9-------9-----9-----9----9-------9-----9-----9-|
G:-7-------------7-----7----7-------------7-----7---|
C:-------------7-----7------------------7-----7-----|

D:-------------------------------------------------------|
A:-------8-----------------------------------------------|
F:-----9---9---------------------12-------12-------------|
C:---9-------9-----9-----9----12-------12--------5-----7-|
G:-7-------------7-----7---10-------10---------5-----7---|
C:-------------7-----7-----------------------5-----7-----|

14.ROULETTE

Tuning- Drop C

  Cm                       D#           A#
D||--------5----------5-----|--1----8---------------------|
A||--------6----------6-----|--1----10------------8-------|
F||*--7----7--7----7--7-----|-------10------------9-------|
C||*--7-------7----7-----7--|--3--------10--10----10------|
G||---5-------5----5-----5--|-----------8---10--------10--|
C||-------------------------|---------------10--------10--|


  C#                       G#         A#
-------6----------6-----|----------------------------||
-------8----------8-----|-------6-----------8--------||
--8----8--8----8--8-----|-------7-----------9-------*||
--8-------8----8-----8--|--8----8-----10----10------*||
--6-------6----6-----6--|--8-------8--10--------10---||
------------------------|--8-------8--10--------10---||


   Cm                             D#            A#
-------------------------------|--------8---------------------|
---------10------------10------|--------10------------8-------|
*--------10------------10------|--10----10------------9-------|
*--12----12--12----12--12------|--10--------10--10----10------|
---12--------12----12------12--|--8---------8---10--------10--|
---12--------12----12------12--|----------------10--------10--|


  C#                       G#         A#
-------6----------6-----|----------------------------||
-------8----------8-----|-------6-----------8--------||
--8----8--8----8--8-----|-------7-----------9-------*||
--8-------8----8-----8--|--8----8-----10----10------*||
--6-------6----6-----6--|--8-------8--10--------10---||
------------------------|--8-------8--10--------10---||


   Cm                             G#
-------------------------------|------------------------|
---------10------------10------|-------6----------6-----|
*--------10------------10------|-------7----------7-----|
*--12----12--12----12--12------|--8----8--8----8--8-----|
---12--------12----12------12--|--8-------8----8-----8--|
---12--------12----12------12--|--8-------8----8-----8--|


  A#                             G#         A#
------------------------------|----------------------------||
--------8-------------8-------|-------6-----------8--------||
--------9-------------9-------|-------7-----------9-------*||
--10----10--10----10--10------|--8----8-----10----10------*||
--10--------10----10------10--|--8-------8--10--------10---||
--10--------10----10------10--|--8-------8--10--------10---||


   Cm                             D#            A#
-------------------------------|--------8---------------------|
---------10------------10------|--------10------------8-------|
*--------10------------10------|--10----10------------9-------|
*--12----12--12----12--12------|--10--------10--10----10------|
---12--------12----12------12--|--8---------8---10--------10--|
---12--------12----12------12--|----------------10--------10--|


  C#                       G#         A#
-------6----------6-----|----------------------------||
-------8----------8-----|-------6-----------8--------||
--8----8--8----8--8-----|-------7-----------9-------*||
--8-------8----8-----8--|--8----8-----10----10------*||
--6-------6----6-----6--|--8-------8--10--------10---||
------------------------|--8-------8--10--------10---||


   Cm                             D#            A#
-------------------------------|--------8---------------------|
---------10------------10------|--------10------------8-------|
*--------10------------10------|--10----10------------9-------|
*--12----12--12----12--12------|--10--------10--10----10------|
---12--------12----12------12--|--8---------8---10--------10--|
---12--------12----12------12--|----------------10--------10--|


  C#                       G#         A#
-------6----------6-----|----------------------------||
-------8----------8-----|-------6-----------8--------||
--8----8--8----8--8-----|-------7-----------9-------*||
--8-------8----8-----8--|--8----8-----10----10------*||
--6-------6----6-----6--|--8-------8--10--------10---||
------------------------|--8-------8--10--------10---||


   Cm                             G#
-------------------------------|------------------------|
---------10------------10------|-------6----------6-----|
*--------10------------10------|-------7----------7-----|
*--12----12--12----12--12------|--8----8--8----8--8-----|
---12--------12----12------12--|--8-------8----8-----8--|
---12--------12----12------12--|--8-------8----8-----8--|


  A#                             G#         A#             3x
------------------------------|----------------------------||
--------8-------------8-------|-------6-----------8--------||
--------9-------------9-------|-------7-----------9-------*||
--10----10--10----10--10------|--8----8-----10----10------*||
--10--------10----10------10--|--8-------8--10--------10---||
--10--------10----10------10--|--8-------8--10--------10---||


   Cm                             D#            A#
-------------------------------|--------8---------------------|
---------10------------10------|--------10------------8-------|
*--------10------------10------|--10----10------------9-------|
*--12----12--12----12--12------|--10--------10--10----10------|
---12--------12----12------12--|--8---------8---10--------10--|
---12--------12----12------12--|----------------10--------10--|


  C#                       G#         A#
-------6----------6-----|---------------------------|
-------8----------8-----|-------6-----------8-------|
--8----8--8----8--8-----|-------7-----------9-------|
--8-------8----8-----8--|--8----8-----10----10------|
--6-------6----6-----6--|--8-------8--10--------10--|
------------------------|--8-------8--10--------10--|


  Cm                             D#            A#
------------------------------|--------8---------------------|
--------10------------10------|--------10------------8-------|
--------10------------10------|--10----10------------9-------|
--12----12--12----12--12------|--10--------10--10----10------|
--12--------12----12------12--|--8---------8---10--------10--|
--12--------12----12------12--|----------------10--------10--|


  C#                       G#         A#
-------6----------6-----|----------------------------||
-------8----------8-----|-------6-----------8--------||
--8----8--8----8--8-----|-------7-----------9-------*||
--8-------8----8-----8--|--8----8-----10----10------*||
--6-------6----6-----6--|--8-------8--10--------10---||
------------------------|--8-------8--10--------10---||


   Cm                             G#
-------------------------------|------------------------|
---------10------------10------|-------6----------6-----|
*--------10------------10------|-------7----------7-----|
*--12----12--12----12--12------|--8----8--8----8--8-----|
---12--------12----12------12--|--8-------8----8-----8--|
---12--------12----12------12--|--8-------8----8-----8--|


  A#                             G#         A#
------------------------------|----------------------------||
--------8-------------8-------|-------6-----------8--------||
--------9-------------9-------|-------7-----------9-------*||
--10----10--10----10--10------|--8----8-----10----10------*||
--10--------10----10------10--|--8-------8--10--------10---||
--10--------10----10------10--|--8-------8--10--------10---||


   Cm                             G#
-------------------------------|------------------------|
---------10------------10------|-------6----------6-----|
*--------10------------10------|-------7----------7-----|
*--12----12--12----12--12------|--8----8--8----8--8-----|
---12--------12----12------12--|--8-------8----8-----8--|
---12--------12----12------12--|--8-------8----8-----8--|


  A#                             G#         A#
------------------------------|----------------------------||
--------8-------------8-------|-------6-----------8--------||
--------9-------------9-------|-------7-----------9-------*||
--10----10--10----10--10------|--8----8-----10----10------*||
--10--------10----10------10--|--8-------8--10--------10---||
--10--------10----10------10--|--8-------8--10--------10---||


  Cm                             D#            A#
------------------------------|--------8---------------------|
--------10------------10------|--------10------------8-------|
--------10------------10------|--10----10------------9-------|
--12----12--12----12--12------|--10--------10--10----10------|
--12--------12----12------12--|--8---------8---10--------10--|
--12--------12----12------12--|----------------10--------10--|


  C#                       G#         A#
-------6----------6-----|---------------------------|
-------8----------8-----|-------6-----------8-------|
--8----8--8----8--8-----|-------7-----------9-------|
--8-------8----8-----8--|--8----8-----10----10------|
--6-------6----6-----6--|--8-------8--10--------10--|
------------------------|--8-------8--10--------10--|


    Cm                             D#            A#
|-------------------------------|--------8---------------------|
|---------10------------10------|--------10------------8-------|
|*--------10------------10------|--10----10------------9-------|
|*--12----12--12----12--12------|--10--------10--10----10------|
|---12--------12----12------12--|--8---------8---10--------10--|
|---12--------12----12------12--|----------------10--------10--|


  C#                       G#         A#
-------6----------6-----|----------------------------||
-------8----------8-----|-------6-----------8--------||
--8----8--8----8--8-----|-------7-----------9-------*||
--8-------8----8-----8--|--8----8-----10----10------*||
--6-------6----6-----6--|--8-------8--10--------10---||
------------------------|--8-------8--10--------10---||


  Cm                             D#            A#
------------------------------|--------8---------------------|
--------10------------10------|--------10------------8-------|
--------10------------10------|--10----10------------9-------|
--12----12--12----12--12------|--10--------10--10----10------|
--12--------12----12------12--|--8---------8---10--------10--|
--12--------12----12------12--|----------------10--------10--|


  C#                       G#         A#
-------6----------6-----|---------------------------|--------------------|
-------8----------8-----|-------6-----------8-------|--10----------------|
--8----8--8----8--8-----|-------7-----------9-------|--10----------------|
--8-------8----8-----8--|--8----8-----10----10------|--12----------------|
--6-------6----6-----6--|--8-------8--10--------10--|--12----------------|
------------------------|--8-------8--10--------10--|--12----------------|

Solo

||---10--------------10-12-|
||-------------------------|
||*------------------------|
||*------------------------|
||-------------------------|
||-------------------------|

--13--------------12-13-|--15--------------12-13-|
------------------------|------------------------|
------------------------|------------------------|
------------------------|------------------------|
------------------------|------------------------|
------------------------|------------------------|

--15--13--12--10--12--13--12--10--|--10------------------------|
----------------------------------|----------10--10------10-11-|
----------------------------------|----------------------------|
----------------------------------|----------------------------|
----------------------------------|----------------------------|
----------------------------------|----------------------------|

--8--6--5--3--5--6--5--3--|--3------------------|--6-----0/----0--1--------||
--------------------------|---------1--1--------|--8--6/----3--------3-----||
--------------------------|---------------------|-------------------------*||
--------------------------|---------------------|-------------------------*||
--------------------------|---------------------|--------------------------||
--------------------------|---------------------|--------------------------||

15.STREAMLINE

Tuning- Drop C

|--8---10---11----13-11-10-11-10-8-8---10---11---13-11-10-11-10-8-15----------|
|----8----8----8---------------------8----8----8---------------------15-16----|
|-----------------------------------------------------------------------------|
|-----------------------------------------------------------------------------|
|-----------------------------------------------------------------------------|
|-----------------------------------------------------------------------------|

|----------------15----------------------8---10---11---13-11-10-11-10-8-------|
|-15-13-15-13-------15-16-15-13-15-13------8----8----8------------------------|
|-------------15----------------------15--------------------------------------|
|-----------------------------------------------------------------------------|
|-----------------------------------------------------------------------------|
|-----------------------------------------------------------------------------|

|--15----------------------15-------------------------------------------------|
|-----15-16-15-13-15-13-------15-16-15-13-15-13-------------------------------|
|-----------------------15----------------------15----------------------------|
|-----------------------------------------------------------------------------|
|-----------------------------------------------------------------------------|
|-----------------------------------------------------------------------------|

then i just palm mute these strings
|-12-12-12--------------------------------------------------------------------|
|-12-12-12--------------------------------------------------------------------|
|-12-12-12--------------------------------------------------------------------|
|-----------------------------------------------------------------------------|
|-----------------------------------------------------------------------------|
|-----------------------------------------------------------------------------|

ENJOY!!!
comments
print report bad tab
3 comments total.
0 reply
Mr. Iceman335 wrote on April 11 2006, 09:53 pm

How does everyone forget Thetawaves? And roulette isn't played in chords, even playing it in chords is quite difficult. But, on everything else, great work.

0 reply
madbass wrote on May 7 2006, 07:14 pm

No, Chic N' Stu is wrong in some places. And It shouldn't be tabbed on the high frets. Why don't you have the intro tabbed like this:

D|-9-9-9-9-9-9-9-9-|
A|-8-8-8-8-8-8-8-8-|
F|-----------------|
C|-----------------|
G|-----------------|
That's the way it's supposed to be; it's so much easier. And in the pepperoni onions and all the toppings part is wrong too.

C|-

0 reply
Ludynosa wrote on May 26 2006, 01:43 pm

why have you only tabbed the solo of streamline? its like one of the best songs on the album!

I want to post or [tab]
guest
You may want to rate the tab now too:
select rating
Please do not post tabs as comments. Select "correction" instead!