Oops, an error
Loading. Please wait.

System Of A Down Tab

ver1
ver1

Album

More versions @911Tabs.com
42,277 views 31 this week
22 commentsread comments
1 2 3 4 5
not so good
x 23
add to favorites launch autoscroll
font size
0
reset
Autoscroll
+/-
esc
set tempo
stop
Contributor
WARNING: You are trying to view
                                    content from Ultimate-Guitar.com
                                    in an unauthorized application,
                                    which is prohibited.

                                    Please use an official Ultimate
                                    Guitar Tabs application for iPhone,
                                    iPad or Android to access legitimate
                                    chords, guitar, bass, and drum tabs
                                    from Ultimate-Guitar.com database.

                                    Type "ultimate guitar tabs" in Apple
                                    App Store's or Android Market's
                                    search to find the application.
Artist-System of a down
Whole album of System of a down
			
                    SUITE-PEE

Intro
Natural Harmonics and tremolo picking
|---------------------------------------
|---------------------------------------
|--5\2/5--------------------------------
|---------5\2/5-------5\2/5-------------  x2
|---------------5\2/5-------------------
|---------------------------------------

|---------------------------------------
|---------------------------------------
|---------------------------------------
|---------------------------------------
|-0000101-0000101-0000101-000010-12b----
|-0000101-0000101-0000101-000010-12b----

|---------------------------------------
|---------------------------------------
|---------------------------------------
|---------------------------------------
|-0000101-0000101-0000101-0000-12\-0----
|-0000101-0000101-0000101-0000-12\-0----

Verse
|-----------------10b-------------------
|---------------------------------------
|--7777878-777787-----------------------
|--------------------------------------- x4
|---------------------------------------
|---------------------------------------

Interlude
|---------------------------------------
|---------------------------------------
|---------------------------------------
|--------------------------------------- x3
|-0-1-0--0-5-4--------------------------
|-0-1-0--0-5-4--------------------------
           p.m
|---------------------------------------
|---------------------------------------
|---------------------------------------
|--------------------------------------- 
|-0-1-0--0--5-4-------------------------
|-0-1-0--0--5-4-------------------------




|---------------------------------------
|---------------------------------------
|---------------------------------------
|--------------------------------------- x4
|-0-1-0--0-5-4--------------------------
|-0-1-0--0-5-4--------------------------

fills
|---------------------------------------
|---------------------------------------
|---------------------------------------
|--5-4br--------------------------------
|---------------------------------------
|---------------------------------------

|---------------------------------------
|---------------------------------------
|---------------------------------------
|--0-1-0--0--5-4------0-1-0--0-5-4--4*--
|---------------------------------------
|---------------------------------------

			

			     KNOW



|-----------------------------------
|-----------------------------------
|-----------------------------------
|-----------------------------------
|---0-8-8-0-0-8-8--x4---------------
|---0-8-8-0-0-8-8-------------------

|---------------------------------------
|---------------------------------------
|---------------------------------------
|---------------------------------------
|--0-8-8-8-0-0-4----x8------------------
|--0-8-8-8-0-0-4------------------------

|-10-10--10--10-10-10-------x4----------
|---------------------------------------
|---------------------------------------
|---------------------------------------
|---------------------------------------
|---------------------------------------

|---------------------------------------
|---------------------------------------
|---------------------------------------
|---------------------------------------
|-0-0-3-0-0-3---x2----------------------
|-0-0-3-0-0-3---------------------------






Verse
p.m.........      ..............
|-----------------|----------------------
|-----------------|----------------------
|--------------x4-|----------------------
|-0-0-3-0-0-3-----|-3-0000-3-0000--x4----
|-----------------|----------------------

Chorus
|---------------------------------------
|---------------------------------------
|---------------------------------------
|---------------------------------------
|-0-2-3-33-3--0-2-3-x-x-x-x-x-----------
|-0-2-3-33-3--0-2-3-x-x-x-x-x-----------

Bridge (sounds good if you play the mutes on the 1st fret)
|---------------------------------------------------
|---------------------------------------------------
|---------------------------------------------------
|---------------------------------------------------
|-xxxxx-xxxxx-xxxxx-xxxxx---00000-00000-00000-00000-
|-xxxxx-xxxxx-xxxxx-xxxxx---00000-00000-00000-00000-

|---------------------------------------
|---------------10----------------------
|----------10---10----------------------
|----------10---10---x4-----------------
|-----------8---------------10\---------
|-0-------------------------------------
p.m......................................

|-----------------------------------------
|-----------------------------------------
|-----------------------------------------
|-000000000000000000003333333333333333333-
|-----------------------------------------
|-----------------------------------------

|-----------------------------------------
|-----------------------------------------
|-----------------------------------------
|-----------------------------------------
|-000000000000000000003333333333333333333-
|-000000000000000000003333333333333333333-

			
				Spiders


|-----------------------------------------
|-----------------------------------------	repeat parts
|-----------------------------------------      as necessary
|-----------------------------------------
|---7---7---5---5---5---------------------
|-0---0---0---0---0---0-0-----------------





|-----------------------------------------------------
|-----------------------------------------------------
|-----------------------------------------------------
|-----------------------------------------------------
|---8---7---10---8---7-8---7---7---5---5---5----------
|-0---0---0----0---0-----0---0---0---0---0---0-0------



verse chord
|------
|------
|------
|------
|-10---
|-10---

pre-verse
|----------------------------------------------
|----------------------------------------------
|--14-12-15-14-12/14-12-12/14-10-10-1010101010-
|---x--x--x--x--x--x--x--x--x--x--x--x-x-x-x-x-
|--12-10-13-12-10/12-10-10-12--8--8--8-8-8-8-8-
|----------------------------------------------

|-----------------------------------------
|----------------------------------------- hit chords as 
|----------------------------------------- much as needed
|-----------------------------------------
|-10-8-7----------------------------------
|-10-8-7----------------------------------

second pre-verse
|-----------------------------------------
|-----------------------------------------
|---9---9---7---7---77--------------------
|---x---x---x---x---xx--------------------
|---7---7---5---5---55--------------------
|-0---0---0---0---0-----------------------

second verse
|-----------------------------------------
|-----------------------------------------
|--9-7-10-9-7/9-7-7/9-5-5-555-------------
|--x-x--x-x-x-x-x-x-x-x-x-xxx-------------
|--7-5--8-7-5/7-5-5-7-3-3-333-------------
|-----------------------------------------

solo	tremolo pick chords
|-----------------------------------------
|--10--11--14-----------------------------
|---x---x---x---x2------------------------
|---7---8--11-----------------------------
|-----------------------------------------
|-----------------------------------------






|-----------------------------------------------------------
|---15--15--15--15--15--15--15--15--16--16--16--16---14--14-
|-----------------------------------------------------------
|-12--12--12--12--12--12--12--12--13--13--13--13---11--11---
|-----------------------------------------------------------
|-----------------------------------------------------------


			     DDEVIL

Intro	
|--------|---------------------------------
|--------|--------------------------------- repeat as needed
|--5^vs--|---------------------------------
|--------|---------------------------------
|--------|--0-6-0-5-0-6-0-0-5--------------
|--------|--0-6-0-5-0-6-0-0-5--------------

Verse
p.m...................................
|--------------------------------------------------
|--------------------------------------------------
|--------------------------------------------------
|-------------------------------------------6h7----
|-0-00-00-00-00-00-00-00-00-00-00-00-00--6h7---6h7-
|--------------------------------------------------

|-----------------------------------------
|-----------------------------------------
|-----------------------------------------
|-----------------------------------------
|--5-4-6-5---0-6-0-5-0-6-0-5-6-5----------
|--5-4-6-5---0-6-0-5-0-6-0-5-6-5----------

fill
|----------------------------------
|----------------------------------
|----------------------------------
|0-6-0-5-0-6-0-0-5-----------------
|----------------------------------
|----------------------------------

			       SOIL

solo
|-10-12-13--12-13-15-------10-12-13---------
|-10-----------------10br--10-------10br--x-
|-10-----------------------10-------------x-
|-----------------------------------------x-
|-------------------------------------------
|-------------------------------------------

|---------------------------------------------------------|-
|---------------------------------------------------------|-
|---------------------------------------------------------|-
|-----3----3----3----3-----3-----3----3----3--------------|-
|-3h5---3h5--3h5--3h5--3h5---3h5---3h5--3h5--3h5>>>>>>>-x2|-
|---------------------------------------------------------|-



|---------------------------------------------------10---
|----------------------11-11br-10----------------10-10---
|------10-----12-10-10------------10--1010----10-10-10---
|-10h12---x8-------------------------------12------------
|--------------------------------------------------------
|--------------------------------------------------------
						



|----------10----------10--------------------15b151515------
|-------10-10-------10-10-------------/15-12\---------------
|----10-10-10----10-10-10-----------------------------------
|-12----------12----------10h12p10h12-----------------------
|-----------------------------------------------------------
|-----------------------------------------------------------
				
                         War?


Intro

|-----------------   ------------------
|---------x-x-x-x-   ----------8---8---
|-8-7-8-7-x-x-x-x-   -8-7-8-7----7---7-
|---------x-x-x-x-   ------------------
|-----------------   ------------------
|-----------------x3 ------------------x1 

|-------------------------------   
|---------x-x-x-x-x-x-x-x-x-x-x-   
|-8-7-8-7-x-x-x-x-x-x-x-x-x-x-x-   
|---------x-x-x-x-x-x-x-x-x-x-x-   
|-------------------------------  
|-------------------------------  
Last time

Chorus

|------------------------------------------------------
|------------------------------------------------------
|---------------------------1010------------1111-------
|----------------------------x-x------------x-x--------
|-0-6-0-0-6-0-0-8-0-0-6-0-0--8-9-0-0-6-0-0--9-90-0-6-0-
|-0-6-0-0-6-0-0-8-0-0-6-0-0------0-0-6-0-0-----0-0-6-0-

Verse
p.m................................
|--------------------------------------------
|--------------------------------------------
|--------------------------------------------
|--------------------------------------------
|-1-0-1-0--1-0-1-0--1-0-1-0--1-0-1-0-5-0-5-0-
|-1-0-1-0--1-0-1-0--1-0-1-0--1-0-1-0-5-0-5-0-






|-----------------------------------------------------------
|-----------------------------------------------------------
|-----------------------------------------------------------
|-----------------------------------------------------------
|-1-0-1-0-x-x-x-x-1-0-1-0-x-x-x-x-1-0-1-0-x-x-x-x-1-0-1-0-5-
|x-x-x-x-1-0-1-0-x-x-x-x-1-0-1-0-x-x-x-x-1-0-1-0-5-0-5-0----

Before Bridge
|-----------------------------------------------------------
|-----------------------------------------------------------
|-----------------------------------------------------------
|----------------------------------10-10-----------11-11----
|-0-0-6-6-0-0-6-0-0-8-8-0-0-6-0-0--8--8-0-0-6-0-0--9--9--0--
|-0-0-6-6-0-0-6-0-0-8-8-0-0-6-0-0-------0-0-6-0-0--------0-- 

Bridge
|p.m.................................. 
|-------------------------------------
|---10-8-7---7-8-10---10-8-7---10-8-7-
|-0--------0--------0--------0--------
|-------------------------------------
|-------------------------------------

			       Mind



     
     INTRO:    

|-----------------------------------------------------------
|---8--7^------8-----7-8-10-----7-8-10-8-7---------8-7^-----
|-5^----5-----7----------7------------7-5-------------7-5^--
|-----------------------------------------------------------
|-----------------------------------------------------------
|-----------------------------------------------------------
    
|------------|--------------------|-------------------------
|---8---7^---|----8---7^----------|--8---7------------------
|-5---5-5^---|--5---5-5^--7--5----|----5---5---repeat-------
|------------|--------------------|---------------------
|------------|--------------------|---------------------
|------------|--------------------|--------------------- 
					 pm.............. 	

     FILL     

    p.m........  
    |-----------
    |-----------
    |-----------
    |00000000000
    |00000000000
    |00000000000
     





CHORUS:

    |---------------------------
    |--------------------------- on the 2nd time dont play the 0
    |---------------------------
    |-0---1-3----0---3-2-1-0----
    |-0---1-3----0---3-2-1-0----
    |-0---1-3----0---3-2-1-0----
                    pm....... 
     
    1ST VERSE:
    |----------------------------
    |-------12^------------------
    |-12^--------------15----15--
    |-------------16^-----16^----
    |----------------------------
    |----------------------------

     BRIDGE:

    |-------------------------
    |-------------------------
    |-------------------------
    |--0-0-0-0-0-0-0-0-6-6-6--
    |--0-0-0-0-0-0-0-0-6-6-6--
    |--0-0-0-0-0-0-0-0-6-6-6--

    |------------------------------
    |------------------------------
    |------------------------------ 
    |-7-6-7-6-7-7-7-6-7-6----------
    |-7-6-7-6-7-7-7-6-7-6----------
    |-7-6-7-6-7-7-7-6-7-6----------

     2ND VERSE:

 D|----------------------|---------|------------------------ 
 A|------------12---12---|-12------|--12p10h12p10-repeat----
 F|-12---12--------------|-----14--|------------------------ 

     outro is bass but its the same notes 4 guitar

|-----------------------------------------
|-----------------------------------------
|-----------------------------------------
|-----5-5-4-4-3---------------------------
|-----------------------------------------
|-0---------------------------------------
    

			CUBErt

|151515151515151515151515151515151515151515
|------------------------------------------
|------------------------------------------
|------------------------------------------
|------------------------------------------
|------------------------------------------

p.m................................................
|----------------------------------------------------
|----------------------------------------------------
|----------------------------------------------------
|----------------------------------------------------
|--5555555555555555555555-5555555555555555555555555--
|--5555555555555555555555-5555555555555555555555555--
            p.m.............
|------------------------------------------------------
|------------------------------------------------------
|---3---1----------------------------------------------
|-----4---3--------------------------------------------
|------------5555555555555555--------------------------
|------------5555555555555555--------------------------
			    p.m........... 	
|----------------------------------------------------
|----------------------------------------------------
|-------------7-----6---5----------------------------
|----7--------7-----6---5----------------------------
|--5-5--7-8---5--8--4-7-3-6--55555555555555----------
|--5----7-8------8----7---6--55555555555555----------

|-----------------------------------------------------------
|-----------------------------------------------------------
|-----------------------------------------------------------
|-----------------------------------------------------------
|-4444444-4444444-5555555-5555555-4444444-4444444-555555-5-
|-4444444-4444444-5555555-5555555-4444444-4444444-555555-5\-





				Darts
chords used in intro (and other parts of the song)
|-----------------------------------------
|-----------------------------------------
|-----------------------------------------
|-----------------------------------------
|--0--6--/11----5-------------------------
|--0--6--/11----5-------------------------

verse
|-----------------------------------------
|-----9--9br---8-8br---9-9br---6b---------
|---7--------6-------7-------8-8b---------
|-----------------------------------------
|-----------------------------------------
|-----------------------------------------



|---------------------------------------------------11------
|1010101010101010109999999999999988888888888-101010----10---
|-----------------------------------------------------------
|-----------------------------------------------------------
|-----------------------------------------------------------
|-----------------------------------------------------------

|-----------------------------------------------
|-----------------------------------------------
|-----------------------------------------------
|----6-6br---5-5br-x2---6-6br-6*6*6*6*6*6*6*6*--
|--5-------4----------5-------------------------
|-----------------------------------------------

Bridge
|-----------------------------------------------------------
|--10-10-10-10-10-10-10-10-9-9-9-9-9-9-9-9-8-8-8-8-8-8-8-8--
|-----------------------------------------------------------
|-----------------------------------------------------------
|-----------------------------------------------------------
|-----------------------------------------------------------


				P.L.U.C.K

   INTRO:
P.M
|---------------------------------
|---------------------------------   
|--9-9-9-9-9-9-9-9-9-9-9-9-9-9-9--   gradually releaseat end
|---------------------------------   
|---------------------------------
|---------------------------------

                                    
    |-----------------------------------------
    |-----------------------------------------
    |-----------------------------------------
    |--2-2-2-2-2-2-2-2-2-2-2-2--2--2--2--2—2--
    |--2-2-2-2-2-2-2-2-2-2-2-2--2--2--2--2—2-- 
    |--2-2-2-2-2-2-2-2-2-2-2-2—-2--2--2--2-2- 


    
    |--------------------------
    |--2-2-2-2-2-2-2-2-2-2-2-2-
    |--2-2-2-2-2-2-2-2-2-2-2-2-
    |--2-2-2-2-2-2-2-2-2-2-2-2-
      pm...............

    |------------------------
    |------------------------
    |------------------------
    |--2-2-2-2-2-2-2-2-2-2-2-
    |--2-2-2-2-2-2-2-2-2-2-2-
    |--2-2-2-2-2-2-2-2-2-2-2-
      pm...

     


	VERSE:

    |-------------------------------------------------
    |-------------------------------------------------
    |--7/9-9-9-99/13-13-13-1313/15-15-15-10/13-13-13--
    |-------------------------------------------------
    |--5/7-7-7-77/11-11-11-1111/13-13-13--8/11-11-11--
    |-------------------------------------------------

     CHORUS:

    |--------------
    |--------------
    |--------------
    |--2-2-2-2-0-2-
    |--2-2-2-2-0-2-
    |--2-2-2-2-0-2-
      pm.......

     INTERLUDE/OUTRO:
    
    |------------------------------------------|---------
    |------------------------------------------|---------
    |------------------------------------------|---------
    |--2-2-2-2------------------5--5--5-5--3-3-|-3-2-2-2-
    |--2-2-2-2----3-3-3-3/5/3-0-5--5--5-5--3-3-|-3-2-2-2-
    |--2-2-2-2------------------5--5--5-5--3-3-|-3-2-2-2-

22 comments total. Showing first comments.
0 reply
slipknot_133 wrote on January 4 2002, 12:00 am

most of this tab is wrong some songs sound pretty good some dont and where is sugar

-1 reply
kurt425 wrote on January 17 2002, 12:00 am

pretty good!
almost all song are right, good work

0 reply
bbknig wrote on January 27 2002, 12:00 am

You fuckin' suck dude... half of its fuckin' wrong... you should be ashamed.

I want to post or [tab]
guest
You may want to rate the tab now too:
select rating
Please do not post tabs as comments. Select "correction" instead!