Oops, an error
Loading. Please wait.

System Of A Down Tab

ver2
ver2

Album

More versions @911Tabs.com
18,689 views 15 this week
12 commentsread comments
1 2 3 4 5
worth learning
x 14
Autoscroll
+/-
esc
set tempo
stop
Contributor
Hey! There's an official Ultimate Guitar app which is ideal
for learning songs when you're away from computer. Get the app
WARNING: You are trying to view
                                    content from Ultimate-Guitar.com
                                    in an unauthorized application,
                                    which is prohibited.

                                    Please use an official Ultimate
                                    Guitar Tabs application for iPhone,
                                    iPad or Android to access legitimate
                                    chords, guitar, bass, and drum tabs
                                    from Ultimate-Guitar.com database.

                                    Type "ultimate guitar tabs" in Apple
                                    App Store's or Android Market's
                                    search to find the application.
Band- System Of A Down
Album- System Of A Down

Tracks:
1.Suite-Pee
2.Know
3.Spiders
4.Ddevil
5.Soil
6.War
7.Mind
8.Cubert
9.Darts
10.Pluck

1.SUITE-PEE

Tuning: C G C F A D

Distortion on the whole song.

Intro: Harmonics
D|----------------------------------------------|
A|----------------------------------------------|
F|--5*-5*-5*-4*-3.1*2.6*1.9*0*-0*-1.9*2.6*4*-5*-|
C|----------------------------------------------|
G|----------------------------------------------|
C|----------------------------------------------|

D|----------------------------------------------|
A|----------------------------------------------|
F|----------------------------------------------|
C|--5*-5*-5*-4*-3.1*2.3*1.9*0*-0*-1.9*3.1*4*-5*-|
G|----------------------------------------------|
C|----------------------------------------------|

D|----------------------------------------------|
A|----------------------------------------------|
F|----------------------------------------------|
C|----------------------------------------------|
G|--5*-5*-4*-4*-3.1*2.6*1.9*0*-1.9*2.6*4*-5*-5*-|
C|----------------------------------------------|

D|----------------------------------------------|
A|----------------------------------------------|
F|----------------------------------------------|
C|-5*-5*-4*-3.1*2.6*1.9*0*-0*-1.9*3.1*4*-5*-5*--|
G|----------------------------------------------|
C|----------------------------------------------|

Chorus:
D|-----------------|-----------------|
A|-----------------|-----------------|
F|-----------------|-----------------|
C|--0-0-0-0-1-0-1--|--0-0-0-0-1-0-3--|
G|--0-0-0-0-1-0-1--|--0-0-0-0-1-0-3--|
C|--0-0-0-0-1-0-1--|--0-0-0-0-1-0-3--|

Verse:
D|-------------------------------------10^-|
A|-----------------------------------------|
F|-7-7--7-7-8-7-8----7--7--7-7-7--8---7----|
C|-0---------------------------------------|
G|-----------------------------------------|
C|-----------------------------------------|

Interlude:
D|-------------------------------------------------------------------|
A|-------------------------------------------------------------------|
F|-------------------------------------------------------------------|
C|-0-1-0--0-5-4~----0-1-0--0-5-4~----0-1-0--0-5-4~---0-1-0--0-5-4----|
G|-0-1-0--0-5-4~----0-1-0--0-5-4~----0-1-0--0-5-4~---0-1-0--0-5-4----|
C|-0-1-0--0-5-4~----0-1-0--0-5-4~----0-1-0--0-5-4~---0-1-0--0-5-4----|
pm                                                          ......

D|---------------------------------------------------------------------------|
A|---------------------------------------------------------------------------|
F|---------------------------------------------------------------------------|
C|-0-1--0-0-5--4----0-1--0-0-5--4----0-1--0-0-5--4----0-1--0--0-5--4---5--4^~|
G|-0-1--0-0-5--4----0-1--0-0-5--4----0-1--0-0-5--4----0-1--0--0-5--4---------|
C|-0-1--0-0-5--4----0-1--0-0-5--4----0-1--0-0-5--4----0-1--0--0-5--4---------|
pm..................................................................

D|------------------------------------------------------------------------|
A|------------------------------------------------------------------------|
F|------------------------------------------------------------------------|
C|-0-1--0-0-5-4------0-1--0-0-5---4---0-1--0-0-5---4---0-1--0-0-5---4-----|
G|-0-1--0-0-5-4------0-1--0-0-5---4---0-1--0-0-5---4---0-1--0-0-5---4-----|
C|-0-1--0-0-5-4^-----0-1--0-0-5---4---0-1--0-0-5---4---0-1--0-0-5---4-----|

D|--------------------------------|--------------------------------|
A|--------------------------------|--------------------------------|
F|----------------------------7-7-|7-8-7--7--12--11------11^(11)~--|
C|--0-1-0--0--5--4------------x-x-|x-x-x--x---x---x-------x--------|
G|--0-1-0--0--5--4------12\---5-5-|5-6-5--5--10---9-------9--------|
C|--0-1-0--0--5--4------12\-------|--------------------------------|

(ph) = pinch harmonic
D|--------------------------|---------------------------|----------------------|
A|----------------------(ph)|-----------------------(ph)|----------------------|
F|-7-8-7--7--12--11------11~|-7-8-7----7--12--11-----11~|-7-8-7--7--12--11-----|
C|-x-x-x--x---x---x---------|-x-x-x----x---x---x--------|-x-x-x--x---x---x-----|
G|-5-6-5--5--10---9---------|-5-6-5----5--10---9--------|-5-6-5--5--10---9-----|
C|--------------------------|---------------------------|----------------------|

Outro:
D|----------------------10-10-|-------------------10-10-|
A|----------------------------|--------------------x--x-|
F|----7--7--7--7--8--7--------|--7--7--7--7--8--7--7--7-|
C|----------------------------|-------------------------|
G|----------------------------|-------------------------|
C|----------------------------|-------------------------|

2.KNOW

Play in Dropped C (CGCFAD) Tuning
Heavy Distortion Throughout Whole Song

intro A
intro B
intro C
riff A
verse
chorus
riff B
verse
chorus
riff C
riff D
riff E
riff F
riff G
chorus


intro A x4
D| ---------------|
A| ---------------|
F| ---------------|
C| -0--8--0-0-8-8-|
G| -0--8--0-0-8-8-|
C| -0--8--0-0-8-8-|

intro B x8
D| ---------------|
A| ---------------|
F| ---------------|
C| -0--8--0-0-4-4-|
G| -0--8--0-0-4-4-|
C| -0--8--0-0-4-4-|

intro C x4(play fast)
D| -10-10---10-10-10-|
A| ------------------|
F| ------------------|
C| ------------------|
G| ------------------|
C| ------------------|

riff A x8(play hard)
D| -----------|
A| -----------|
F| -----------|
C| -0---0-0-3-|
G| -0---0-0-3-|
C| -0---0-0-3-|

verse x16(palm muted)
D| ---------------|
A| ---------------|
F| ---------------|
C| ---------------|
G| -5-5--5-5----8-|
C| ---------------|

chorus x4(don\'t play the x\'s 3th time)
D| -----------------------------------|
A| -----------------------------------|
F| -----------------------------------|
C| -0--2-3--3-3-3--0--2-3-x-x--x--x-x-|
G| -0--2-3--3-3-3--0--2-3-x-x--x--x-x-|
C| -0--2-3--3-3-3--0--2-3-x-x--x--x-x-|

riff B x8(play hard)
D| -----------|
A| -----------|
F| -----------|
C| -0-0--0--3-|
G| -0-0--0--3-|
C| -0-0--0--3-|

riff c x3(heavy palm muted)
D| -------------|
A| -------------|
F| -------------|
C| -x-x--x--x-x-|
G| -x-x--x--x-x-|
C| -x-x--x--x-x-|

riff d x7(play hard)
D| -------------|
A| -------------|
F| -------------|
C| -0-0--0--0-0-|
G| -0-0--0--0-0-|
C| -0-0--0--0-0-|

riff e x4(play slowly. dont play fret 10 on A string 4th time)
D| ------------------|
A| ---------------10-|
F| ----------10---10-|
C| ----------8----8--|
G| -0----------------|
C| -0----------------|

riff f x2(palm muted)
D| ------------------------------------------|
A| ------------------------------------------|
F| ------------------------------------------|
C| ------------------------------------------|
G| ------------------------------------------|
C| -0-0-0--0-0-0--0-0-0--3-3-3--3-3-3--3-3-3-|

riff g x2
D| ------------------------------------------|
A| ------------------------------------------|
F| ------------------------------------------|
C| -0-0-0--0-0-0--0-0-0--3-3-3--3-3-3--3-3-3-|
G| -0-0-0--0-0-0--0-0-0--3-3-3--3-3-3--3-3-3-|
C| -0-0-0--0-0-0--0-0-0--3-3-3--3-3-3--3-3-3-|


3.SPIDERS

Tuning- Drop C

INTRO/VERSE:

    D|------------------------------|
    A|------------------------------|
    F|------------------------------|
    C|------------------------------|
    G|-----7----7----5----5----5----|
    C|--0-----0----0----0----0---0--|

    D|------------------------------|
    A|------------------------------|
    F|------------------------------|
    C|------------------------------|
    G|-----7----7----5----5----5----|
    C|--0-----0----0----0----0---0--|

    D|-------------------------------|
    A|-------------------------------|
    F|-------------------------------|
    C|-------------------------------|
    G|-----8----7----10----8----7-8--|
    C|--0-----0----0-----0----0------|

    D|------------------------------|
    A|------------------------------|
    F|------------------------------|
    C|------------------------------|
    G|-----7----7----5----5----5----|
    C|--0-----0----0----0----0---0--|

     CHORUS:

    D|-----------------------------------------|
    A|-----------------------------------------|
    F|-----------------------------------------|
    C|-----------------------------------------|
    G|--10--10--10--10-10-10-10-10--10--10-10--|
    C|--10--10--10--10-10-10-10-10--10--10-10--|

    D|-----------------------------------------------|
    A|-----------------------------------------------|
    F|-----------------------------------------------|
    C|-----------------------------------------------|
    G|--10-10-10-10-10--10-10--10-10-10-10-10-10-10--|
    C|--10-10-10-10-10--10-10--10-10-10-10-10-10-10--|

    D|----------------------------------|
    A|----------------------------------|
    F|-----14---12---15----14----12/14--|
    C|------x----x----x-----x-----x-----|
    G|-----12---10---13----12----10/12--|
    C|--0----------------0-----0--------|

    D|------------------------------------------|
    A|------------------------------------------|
    F|-----12---12/14--10-10-10-10-10-10-10-10--|
    C|------x----x------x--x--x--x--x--x--x--x--|
    G|-----10---10/12---8--8--8--8--8--8--8--8--|
    C|--0---------------------------------------|

    D|-----------------------------------------|
    A|-----------------------------------------|
    F|-----------------------------------------|
    C|-----------------------------------------|
    G|--10--10--10--10-10-10-10--10-10--10-10--|
    C|--10--10--10--10-10-10-10--10-10--10-10--|

    D|----------------------------------|
    A|----------------------------------|
    F|----------------------------------|
    C|----------------------------------|
    G|--8-8-8-8-8--8-8-7-7-7-7-7-7-7-7--|
    C|--8-8-8-8-8--8-8-7-7-7-7-7-7-7-7--|

     GUITAR SOLO:

     hit each chord multiple times

    D|----------------------------------------------|
    A|----------------------------------------------|
    F|--14------15------18------14------15------18--|
    C|---x-------x-------x-------x-------x-------x--|
    G|--12------13------16------12------13------16--|
    C|----------------------------------------------|

     then play the chords below multiple times each, but
     alternate between the note played by the first finger
     and the note played by the third finger

    D|----------------------------------------------|              |---------------|
    A|----------------------------------------------|              |---------------|
    F|--19------20------18------19------20------18--|    for       |-----19----19--|
    C|---x-------x-------x-------x-------x-------x--|    example   |---------------|
    G|--17------18------16------17------18------16--|              |--17----17-----|
    C|----------------------------------------------|              |---------------|

     OUTRO:

    D|--------------------------------|
    A|--------------------------------|
    F|----10----9----12---10----9/10--|
    C|-----x----x-----x----x----x-----|
    G|-----8----7----10----8----7/-8--|
    C|--0-----0----0-----0----0-------|

    D|--------------------------------|
    A|--------------------------------|
    F|-----9----9/10---7----7----7-7--|
    C|-----x----x------x----x----x-x--|
    G|-----7----7/-8---5----5----5-5--|
    C|--0-----0-----------0---0-------|

    D|----------------------------------|
    A|----------------------------------|
    F|-----14---12---15----14----12/14--|
    C|------x----x----x-----x-----x-----|
    G|-----12---10---13----12----10/12--|
    C|--0----------------0-----0--------|

    D|---------------------|
    A|---------------------|
    F|-----12---12/14--10--|
    C|------x----x------x--|
    G|-----10---10/12---8--|
    C|--0------------------|

4.DDEVIL

TUNING: tune your guitar down one full step and then drop d (C,G,C,F,A,D)


     INTRO: (starts with bass only)

    D|---------------------|
    A|---------------------|
    F|---------------------|
    C|--0-6-0-5-0-6665-----|
    G|--0-6-0-5-0-6665-----|
    C|--0-6-0-5-0-6665-----|

     VERSE:

    D|---------------------------------------------|
    A|---------------------------------------------|
    F|---------------------------------------------|
    C|-------------------------7p6-----------------|
    G|---------------------6h7-----6h7-------------|
    C|-0-0-000-0-000-0-000-------------------------|
       |------PM-----------------------------------|

     CHORUS:

    D|---------|----------------------------|
    A|---------|----------------------------|
    F|---------|----------------------------|
    C|-6-5-8-7-|---0-6-0-5-0-6665-8-7-------|
    G|-6-5-8-7-|---0-6-0-5-0-6665-8-7-------|
    C|-6-5-8-7-|---0-6-0-5-0-6665-8-7-------|

     BRIDGE:

    D|--------------------------------------------------------------------|
    A|--------------------------------------------------------------------|
    F|--------------------------------------------------------------------|
    C|-0-6-0-5-0-6665---0-6-0-5-0-6665---0-6-0-5---0-6-0-5----------------|
    G|--------------------------------------------------------------------|
    C|--------------------------------------------------------------------|

5.SOIL

Tuning- Drop C

Intro:
======
D|------------------------------------------------------------------------|
A|-10-1010-10-1010-10-1010-10-1010-10-1010-10-1010-10-1010-10-10-10101010-|
F|-10-1010-10-1010-10-1010-10-1010-10-1010-10-1010-10-1010-10-10-10101010-|
C|------------------------------------------------------------------------|
G|--8--8-8--8--8-8--8--8-8--8--8-8--8--8-8--8--8-8--8--8-8--8--8--8-8-8-8-|
C|------------------------------------------------------------------------|
    |                                 |                                 |

D|-------------------------|
A|-10-10-10-10-10-10-10-10-|
F|-10-10-10-10-10-10-10-10-|
C|-------------------------|
G|--8--8--8--8--8--8--8--8-|
C|-------------------------|

Chorus 1:
=========
   1 2 3 1  2 3  1 2 3 1  2 3
D|-------------------------------|
A|-------------------------------|
F|-------------------------------|
C|-3-1-0-03-1-0--3-1-0-03-1-0----|
G|-3-1-0-03-1-0--3-1-0-03-1-0----|
C|-3-1-0-03-1-0--3-1-0-03-1-0----|
                             |||| <--drum beats (I think)

Verse
=====
   1 2 3  1  2 3  1 2 3  1 2  3
D|--------------------------------|
A|--------------------------------|
F|--------------------------------|
C|--------------------------------|
G|--------------------------------|
C|-3-1-0-03-31-00-3-1-0-03-31-000-|
   M M M MM MM MM M M M MM MM MMM
                 |
          DON\'T rest here!

Chrous 2
========
D|-----------------------|
A|-----------------------|
F|-----------------------|
C|-----------------------|
G|-------1/12121212------|
C|-0--0--1/12121212- <---| these are twelves not ones and twos!

   1 2 3  1 2 3  1 2 3  1 2 3
D|------------------------------|
A|------------------------------|
F|------------------------------|
C|-3-1-0-03-1-0--3-1-0-03-1-0.--|
G|-3-1-0-03-1-0--3-1-0-03-1-0.--|
C|-3-1-0-03-1-0--3-1-0-03-1-0.--|

Break 1
=======
The numbers below are 10\'s, 11\'s, 12\'s, 17\'s and 18\'s
D|--------------------------------------------------------|
A|-------9-999-999-9999------12-121212-121212-12121212----|
F|-------7-777-777-7777------10-101010-101010-10101010----|
C|--------------------------------------------------------|
G|--------------------------------------------------------|
C|-0-------------------0----------------------------------|

D|----------------------------------------------------------------|
A|-------11-111111-111111-11111111------18-181818-181818-18181818-|
F|--------9--9-9-9--9-9-9--9-9-9-9------17-171717-171717-17171717-|
C|----------------------------------------------------------------|
G|----------------------------------------------------------------|
C|-0------------------------------0-------------------------------|

Break 2
=======
D|-------------------------------------------------------------|
A|-------------------------------------------------------------|
F|-------------------------------------------------------------|
C|-------------------------------------------------------------|
G|--0--0----------0--0----------0--0----------0----0----0----0-| x2
C|--0--0----------0--0----------0--0----------0----0----0----0-|
    M  M          M  M          M  M          M    M    M    M
 \"dont you...     realize....\"

D|------------------|-----------------|-----------------|------------------|
A|------------------|-----------------|-----------------|------------------|
F|-7-7-7~7-77-7-7-7~|7-7-7~7-77-7-7-7~|7-7-7~7-77-7-7-7~|7-7-7~7-77-7-7-7~-|
C|------------------|-----------------|-----------------|------------------|
G|------------------|-----------------|-----------------|------------------|
C|------------------|-----------------|-----------------|------------------|
         M    M M P        M    M M P        M    M M P        M    M M P
 \"dont you...        realize....       evil......\"

D|-10-10-10-10-10-10-10-10-10-10-10-10-10-10-10-10-|
A|-------------------------------------------------|
F|-------------------------------------------------| x4
C|-------------------------------------------------|
G|-------------------------------------------------|
C|-------------------------------------------------|

Solo
====
Not really 100% but the first half im sure about
D|--------------------10--10-12-13---12-13-15-----------10--12-13------|
A|-------------------10-----------------------14^v-----10---------14^v-|
F|------------------10--------------------------------10---------------|
C|-0-------------------------------------------------------------------|
G|-0-------------------------------------------------------------------|
C|-0-------------------------------------------------------------------|

D|-------------------------------------------------------------|
A|-------------------------------------------------------------|
F|-------------------------------------------------------------|
C|-5-----3-----3-----3-----3-----3-----3-----3-----3-----3--33-| not
G|----3h5p3-3h5p3-3h5p3-3h5p3-3h5p3-3h5p3-3h5p3-3h5p3~~~~3--33-| really
C|-------------------------------------------------------------| hamronics,
   H  M MMM M MMM M MMM M MMM M MMM M MMM M MMM M MMM    H  HH <-more like
                                                         M  MM   \'clicks\'.

D|--------------------------------------------------------|
A|--------------------------------------------------------|
F|--------------------------------------------------------|
C|----3-----3-----3-----3-----3-----3-----3-----3------33-|
G|-3h5p3-3h5p3-3h5p3-3h5p3-3h5p3-3h5p3-3h5p3-3h5p3~~~~-33-|
C|--------------------------------------------------------|
   M MMM M MMM M MMM M MMM M MMM M MMM M MMM M MMM     MM
                                                       HH

D|--------------------------------------------|
A|--------------------------------------------|
F|------10---------10---------10---------10---|
C|-10h12-p10--10h12-p10--10h12-p10--10h12-p10-|
G|--------------------------------------------|
C|--------------------------------------------|

D|-------------------------------------------------------------------------|
A|-------------------------------------------------------10^v-11^-11-10----|
F|------10---------10---------10---------10-------10--------------------10-|
C|-10h12-p10--10h12-p10--10h12-p10--10h12-p10-1212--1212-------------------|
G|-------------------------------------------------------------------------|
C|-------------------------------------------------------------------------|
                                                           1   2

D|------(10)10.------(10)10.------(10)10.--------------------/15^15^15^15--|
A|-10.10.10.10.-10.10.10.10.-10.10.10.10.-------------13^-13---------------|
F|-10.10.10(10)-10.10.10(10)-10.10.10(10)-10h12-10-10----------------------|
C|-------------------------------------------------------------------------|
G|-------------------------------------------------------------------------|
C|-------------------------------------------------------------------------|
   d  d  d  u   d  d  d  u   d  d  d  u                 1

D|-15^15^15^15^15^15^15^15^15^15^15^15---|- <- this is all one continuous
A|---------------------------------------|    bend upto the apex at the end,
F|---------------------------------------|    hitting the string repeatedly
C|---------------------------------------|    and NOT a series of small
G|---------------------------------------|    bends. Listen to the CD :)
C|---------------------------------------|

Post Solo Bit
=============
D|-------------------------------------------------------------------------|
A|-------------------------------------------------------------------------|
F|-12-12-12-12-11-11-11-11--8--8--8--8--7--7--7--7--8--8--8--8-11-11-11-11-|
C|-11-11-11-11-10-10-10-10--7--7--7--7--6--6--6--6--7--7--7--7-10-10-10-10-|
G|-10-10-10-10--9--9--9--9--6--6--6--6--5--5--5--5--6--6--6--6--9--9--9--9-|
C|-------------------------------------------------------------------------|

D|-------------------------------------------------------------------------|
A|-------------------------------------------------------------------------|
F|-12-12-12-12-11-11-11-11-12-12-12-12-15-15-15-15-14-14-14-14-12-12-12-12-|
C|-11-11-11-11-10-10-10-10-11-11-11-11-14-14-14-14-13-13-13-13-11-11-11-11-|
G|-10-10-10-10--9--9--9--9-10-10-10-10-13-13-13-13-12-12-12-12-10-10-10-10-|
C|-------------------------------------------------------------------------|

D|-------------------------------------|
A|-------------------------------------|
F|-11-11-11-11--8--8--8--8--7--7--7--7-|
C|-10-10-10-10--7--7--7--7--6--6--6--6-|
G|--9--9--9--9--6--6--6--6--5--5--5--5-|
C|-------------------------------------|

D|-------------------------------------------------------------------------|
A|-------------------------------------------------------------------------|
F|-12-12-12-12-11-11-11-11-8-8-8-8-7-7-7-7-8-8-8-8-11-11-11-11-12-12-12-12-|
C|-------------------------------------------------------------------------|
G|-------------------------------------------------------------------------|
C|-------------------------------------------------------------------------|

D|-------------------------------------------------------------------------|
A|-------------------------------------------------------------------------|
F|-11-11-11-11-12-12-12-12-15-15-15-15-14-14-14-14-12-12-12-12-11-11-11-11-|
C|-------------------------------------------------------------------------|
G|-------------------------------------------------------------------------|
C|-------------------------------------------------------------------------|

D|-----------------|
A|-----------------|
F|-8-8-8-8-7-7-7-7-|
C|-----------------|
G|-----------------|
C|-----------------|

D|-15-15-15-15-14-14-14-14-11-11-11-11-10-10-10-10-11-11-11-11-14-14-14-14-|
A|-------------------------------------------------------------------------|
F|-------------------------------------------------------------------------|
C|-------------------------------------------------------------------------|
G|-------------------------------------------------------------------------|
C|-------------------------------------------------------------------------|

D|-15-15-15-15-14-14-14-14-15-15-15-15-18-18-18-18-17-17-17-17-15-15-15-15-|
A|-------------------------------------------------------------------------|
F|-------------------------------------------------------------------------|
C|-------------------------------------------------------------------------|
G|-------------------------------------------------------------------------|
C|-------------------------------------------------------------------------|

D|-14-14-14-14-11-11-11-11-10-10-10-10-|
A|-------------------------------------|
F|-------------------------------------|
C|-------------------------------------|
G|-------------------------------------|
C|-------------------------------------|

Ending
======
Then play the following guitar:

D|-----------------------------|-----------------------------|
A|-----------------------------|-----------------------------|
F|-----------------------------|-----------------------------|
C|-3-1-0-03-1-0-3-1-0-3-31-000-|3-1-0-03-1-0-3-1-0-3-31-0.---|
G|-3-1-0-03-1-0-3-1-0-3-31-000-|3-1-0-03-1-0-3-1-0-3-31-0.---|
C|-3-1-0-03-1-0-3-1-0-3-31-000-|3-1-0-03-1-0-3-1-0-3-31-0.---|
                                                        M

Intro         x1
Chorus 1      x4
Verse         x4
Chorus 2      x4 (2nd line of tab only)
Break 1       x1
Verse         x4
Chorus 2      x4
Break 2       x1
Solo          x1
Post Solo Bit x1
Ending        x1

6.WAR

Tuning- Drop C

Intro:

d----------------x--x-----------------x--x--x--x--------------x--x--x----|
a----------------x--x-----------------x--x--x--x--------------x--x--x----|
f-8--7--8--7--8--x--x-----8--7--8--7--x--x--x--x--8--7--8--7--x--x--x----|
c-0-----0--0--------------0--0--0--0--------------0--0--0--0-----------0-|
g----------------------0-------------------------------------------------|
c------------------------------------------------------------------------|

d---------------------------------------x--x--x--x--------------x--x--x--x--|
a---------------------------------------x--x--x--x--------------x--x--x--x--|
f-8--7--8--7--12--7--12--7--8--7--8--7--x--x--x--x--8--7--8--7--x--x--x--x--|
c-0--0--0--0---0--0---0--0--0--0--0--0--------------0--0--0--0--------------|
g---------------------------------------------------------------------------|
c---------------------------------------------------------------------------|

d-------------x--x--x--x--x---x----x-----x-----x-----x--x--x--x--x--x--x----|
a-------------x--x--x--x--x---x----x-----x-----x----------------------------|
f-8--7--8--7--x--x--x--x--------x-----x-----x-----x-------------------------|
c-0--0--0--0--------------------x-----x-----x-----x-------------------------|
g-------------------------------------------------------------------------0-|
c-------------------------------------------------------------------------0-|

Fig. 1

d-----------------------------------------------------------------|
a-----------------------------------------------------------------|
f------------------------------------1010------------1111---------|
c-------------------------------------x-x-------------x-x---------|
g---0-6-6-0-0-6-0---0-8-8-0-0-6-0---0-8-8-0-0-6-0---0-9-9-0-0-6-0-|
c---0-6-6-0-0-6-0---0-8-8-0-0-6-0---0-----0-0-6-0---0-----0-0-6-0-|

d-----------------------------------------------------------------|
a-----------------------------------------------------------------|
f------------------------------------1010------------1111---------|
c-------------------------------------x-x-------------x-x---------|
g---0-6-6-0-0-6-0---0-8-8-0-0-6-0---0-8-8-0-0-6-0---0-9-9-0-0-6-0-|
c---0-6-6-0-0-6-0---0-8-8-0-0-6-0---0-----0-0-6-0---0-----0-0-6-0-|

Verse:

x2, pm
d-----------------------------------------------------------------|
a-----------------------------------------------------------------|
f-----------------------------------------------------------------|
c-----------------------------------------------------------------|
g-1-0-1-0---------1-0-1-0---------1-0-1-0---------1-0-1-0-5-0-5-0-|
c-1-0-1-0---------1-0-1-0---------1-0-1-0---------1-0-1-0-5-0-5-0-|

then:

d-------------x---------------x---------------x-x-----------------|
a-------------x---------------x---------------x-x-----------------|
f-------------x---------------x---------------x-x-----------------|
c-----------------------------------------------------------------|
g-1-0-1-0---------1-0-1-0---------1-0-1-0-x-x-----1-0-1-0-5-0-5-0-|
c-1-0-1-0-x-x---x-1-0-1-0-x-x---x-1-0-1-0-x-x-----1-0-1-0-5-0-5-0-|

d-------------x---------------x---------------x-x-x-x-x-x-x-x-x---|
a-------------x---------------x---------------x-x-----------------|
f-------------x---------------x---------------x-x-----------------|
c-----------------------------------------------------------------|
g-1-0-1-0---------1-0-1-0---------1-0-1-0-x-x-------------------0-|
c-1-0-1-0-x-x---x-1-0-1-0-x-x---x-1-0-1-0-x-x-------------------0-|

Chorus: Fig. 1

Verse 2:

d-----------------------------------------------------------------|
a-----------------------------------------------------------------|
f-----------------------------------------------------------------|
c-----------------------------------------------------------------|
g-1-0-1-0---------1-0-/5----------1-0-1-0---------1-0-1-0-5-0-5-0-|
c-1-0-1-0---------1-0-/5----------1-0-1-0---------1-0-1-0-5-0-5-0-|

d---------x-x-x-x-------------x-x---------x-x-x-x-x-x-x-x-x-x-x---|
a---------x-x-x-x-------------x-x---------x-x-x-x-----------------|
f---------x-x-x-x-------------x-x---------x-x-x-x-----------------|
c-----------------------------------------------------------------|
g-1-0-1-0---------1-0-/5----------1-0-1-0-----------------------0-|
c-1-0-1-0---------1-0-/5--0-0-----1-0-1-0-----------------------0-|

Chorus: Fig. 1

before Interlude:

pm
d-----------------------------------------------------------------|
a-----------------------------------------------------------------|
f-----------------------------------------------------------------|
c------------------------------------1010------------1111---------|
g-0-0-6-6-0-0-6-0-0-0-8-8-0-0-6-0-0-0-8-8-0-0-6-0-0-0-9-9-0-0-6-0-|
c-0-0-6-6-0-0-6-0-0-0-8-8-0-0-6-0-0-0-----0-0-6-0-0-0-----0-0-6-0-|

d-----------------------------------------------------------------|
a-----------------------------------------------------------------|
f------------------------------------1010-------------------------|
c-------------------------------------x-x------------1111---------|
g-0-0-6-6-0-0-6-0-0-0-8-8-0-0-6-0-0-0-8-8-0-0-6-0-0-0-9-9-0-0-6-0-|
c-0-0-6-6-0-0-6-0-0-0-8-8-0-0-6-0-0-0-----0-0-6-0-0-0-----0-0-6-0-|

Interlude:

x4, pm
d-------------------------------------|
a-------------------------------------|
f---10-8-7---7-8-10---10-8-7---6-7-9--|
c-0--------0--------0--------0--------|
g-------------------------------------|
c-------------------------------------|

Bridge: x6
pm
d--------------------------------------|
a--------------------------------------|
f---10-8-7---10-8-7---10-8-7---10-8-7--|
c-0--------0--------0--------0---------|
g--------------------------------------|
c--------------------------------------|

then:

d-------------------------------------------------------------------|
a-------------------------------------------------------------------|
f---10-8-7---10-8-7---6-7-9---6-7-9---6-7-9---6-7-9---6-7-9---6-7-9-|
c-0--------0--------0-------0-------0-------0-------0-------0-------|
g-------------------------------------------------------------------|
c-------------------------------------------------------------------|

x8, pm
d------------------------------------|
a-------10---------------10----------|
f---6-7------6-7-9---6-7------6-7-9--|
c-0--------0-------0--------0--------|
g------------------------------------|
c------------------------------------|

x2, pm
d-----------------------------------------------------------------|
a-----------------------------------------------------------------|
f---6-7-9---6-7-9---6-7-9---6-7-9---6-7-9---6-7-9---6-7-9---6-7-9-|
c-0-------0-------0-------0-------0-------0-------0-------0-------|
g-----------------------------------------------------------------|
c-----------------------------------------------------------------|

x4, pm
d--------------------------------------|
a--------------------------------------|
f---10-8-7---10-8-7---10-8-7---10-8-7--|
c-0--------0--------0--------0---------|
g--------------------------------------|
c--------------------------------------|

Chorus: Fig. 1

Outro:

pm
d-----------------------------------------------------------------|
a-----------------------------------------------------------------|
f-----------------------------------------------------------------|
c------------------------------------1010------------1111---------|
g-0-0-6-6-0-0-6-0-0-0-8-8-0-0-6-0-0-0-8-8-0-0-6-0-0-0-9-9-0-0-6-0-|
c-0-0-6-6-0-0-6-0-0-0-8-8-0-0-6-0-0-0-----0-0-6-0-0-0-----0-0-6-0-|

d-----------------------------------------------------------------|
a-----------------------------------------------------------------|
f------------------------------------1010-------------------------|
c-------------------------------------x-x------------1111---------|
g-0-0-6-6-0-0-6-0-0-0-8-8-0-0-6-0-0-0-8-8-0-0-6-0-0-0-9-9-0-0-6-0-|
c-0-0-6-6-0-0-6-0-0-0-8-8-0-0-6-0-0-0-----0-0-6-0-0-0-----0-0-6-0-|

7.MIND

TUNING: down one full step and drop d (C-G-C-F-A-D)


INTRO:

    D|------------|------|--------------------------------------------------|
    A|---8--7^-*--|---8--|---7-8-10-----7-8-10-8-7---------8-7^----------*--|
    F|-5----5^----|-5----|-7----------7------------7-5-------------7-5^-----|
    C|------------|------|--------------------------------------------------|
    G|---------*--|------|-----------------------------------------------*--|
    C|------------|------|--------------------------------------------------|

    D|-------------|---------------------|---------------------------|
    A|---8---7^-*--|----8---7^--------*--|--8---7--------------------|
    F|-5---5-5^----|--5---5-5^--7--5-----|----5---5---repeat-till----|
    C|-------------|---------------------|------------heavy-part-----|
    G|----------*--|------------------*--|---------------------------|
    C|-------------|---------------------|---------------------------|
			         pm..............

FILL A:

      "Go Away"
    D|-----------|
    A|-----------|
    F|-----------|
    C|-0-0-0-----|
    G|-0-0-0-----|
    C|-0-0-0-----|

CHORUS:

    D|---------------------------|
    A|---------------------------|
    F|---------------------------|
    C|-0---1-3----0---3-2-1-0----|
    G|-0---1-3----0---3-2-1-0----|
    C|-0---1-3----0---3-2-1-0----|
                      pm.......

1ST VERSE:

    D|--------------|-----------------|
    A|-----12^------|-------15--------|
    F|-12^----------|--16^-----16^----|

BRIDGE 1:

    D|-------------------------|
    A|-------------------------|
    F|-------------------------|
    C|--0-0-0-0-0-0-0-0-6-6-6--|  palm mute in and out
    G|--0-0-0-0-0-0-0-0-6-6-6--| you should be able to tell
    C|--0-0-0-0-0-0-0-0-6-6-6--|

BRIDGE 2:

    D|------------------------------|
    A|------------------------------|
    F|------------------------------|
    C|-7-x-6-7-x-6-7-7-7-x-6-7-x-6--|
    G|-7-x-6-7-x-6-7-7-7-x-6-7-x-6--|
    C|-7-x-6-7-x-6-7-7-7-x-6-7-x-6--|

2ND VERSE:

    D|----------------------|---------|-------------------------------|
    A|------------12---12---|-12------|--12p10h12p10-repeat-vey-fast--|
    F|-12---12--------------|-----14--|-------------------------------|

then repeat chorus

BREAKDOWN:  repeat bridge 1&2 palm muted really fast

OUTRO:

    D|-------------------------------|
    A|-------------------------------|
    F|-------------------------------|
    C|-------------------------------|  really quiet
    G|-----------12-12-11-11-10------|
    C|-0-----------------------------|

8.CUBERT

Tuning- Drop C

Intro: x4

d-15-15-15--15-15-15--15-15-15--15-15-15--15-15-15--15-15-15--15-15-15--15--|
a---------------------------------------------------------------------------|
f---------------------------------------------------------------------------|
c---------------------------------------------------------------------------|
g---------------------------------------------------------------------------|
c---------------------------------------------------------------------------|

x4, pm
d-----------------------------------------------------|
a-----------------------------------------------------|
f-----------------------------------------------------|
c-5-5-5--5-5-5--5-5-5--5-5-5--5-5-5--5-5-5--5-5-5--5--|
g-5-5-5--5-5-5--5-5-5--5-5-5--5-5-5--5-5-5--5-5-5--5--|
c-5-5-5--5-5-5--5-5-5--5-5-5--5-5-5--5-5-5--5-5-5--5--|

Verses:

x3
d--------------------------------------------|
a--------------------------------------------|
f-3--------1---------------------------------|
c-----4--------3----5-5-5--5-5-5--5-5-5--5---|
g-------------------5-5-5--5-5-5--5-5-5--5---|
c-------------------5-5-5--5-5-5--5-5-5--5---|
                    pm

then,

d-----------------------------------------------|
a-----------------------------------------------|
f-3--------1------------------------------------|
c-----4--------3----5---5--5-5-5--5---5--5-5-5--|
g-------------------5---5--5-5-5--5---5--5-5-5--|
c-------------------5---5--5-5-5--5---5--5-5-5--|
                    pm

Chorus:

gtr. 1

d-----------------------------------------------------------------|
a-----------------------------------------------------------------|
f----------------7------------------------------------------------|
c-5--------------7----------------7--------------8----------------|
g-5--------------5----------------7--------------8----------------|
c-5-------------------------------7--------------8----------------|

gtr. 2

d-----------------------------------------------------------------|
a-----------------------------------------------------------------|
f-----------------------------------------------------------------|
c-5-----5--5--5--12-----12-12-12--7-----7--7--7--8-----8--8--8----|
g-5-----5--5--5--12-----12-12-12--7-----7--7--7--8-----8--8--8----|
c-5-----5--5--5--12-----12-12-12--7-----7--7--7--8-----8--8--8----|

gtr. 1

d-----------------------------------------------------------------|
a-----------------------------------------------------------------|
f----------------7--------------6--------------5------------------|
c-5--------------7-------8------6-------7------5-------6----------|
g-5--------------5-------8------4-------7------3-------6----------|
c-5----------------------8--------------7--------------6----------|

gtr. 2

d-----------------------------------------------------------------|
a-----------------------------------------------------------------|
f-----------------------------------------------------------------|
c-5-----5--5--5--12------8------11------7------10------6----------|
g-5-----5--5--5--12------8------11------7------10------6----------|
c-5-----5--5--5--12------8------11------7------10------6----------|

Interlude: pm

x2
d-------------------------------------------------------|
a-------------------------------------------------------|
f-------------------------------------------------------|
c-5-5-5--5-5-5--5-5-5--5-----5-5-5--5-5-5--5-5-5--5-----|
g-5-5-5--5-5-5--5-5-5--5-----5-5-5--5-5-5--5-5-5--5-----|
c-5-5-5--5-5-5--5-5-5--5-----5-5-5--5-5-5--5-5-5--5-----|

Interlude 2:

gtr. 1

d-----------------------------------------------------------------|
a-----------------------------------------------------------------|
f-----------------------------------------------------------------|
c-4---4---4---4---4---4---4---4---5---5---5---5---5---5---5---5---|
g-4---4---4---4---4---4---4---4---5---5---5---5---5---5---5---5---|
c-4---4---4---4---4---4---4---4---5---5---5---5---5---5---5---5---|

gtr. 2

d-----------------------------------------------------------------|
a-7---7---7---7---7---7---7---7---8---8---8---8---8---8---8---8---|
f-6---6---6---6---6---6---6---6---7---7---7---7---7---7---7---7---|
c-4---4---4---4---4---4---4---4---5---5---5---5---5---5---5---5---|
g-4---4---4---4---4---4---4---4---5---5---5---5---5---5---5---5---|
c-4---4---4---4---4---4---4---4---5---5---5---5---5---5---5---5---|

Outro Chorus:

gtr. 1

d-------------------------------------------------------------------|
a-------------------------------------------------------------------|
f----------7-------------------------------7-7-----6-6-----5-5------|
c-5--------7--------7--------8--------5----7-7-8-8-6-6-7-7-5-5-6-6--|
g-5--------5--------7--------8--------5----5-5-8-8-4-4-7-7-3-3-6-6--|
c-5-----------------7--------8--------5--------8-8-----7-7-----6-6--|
                                          pm
gtr. 2

d------------------------------------------------------------------------|
a------------------------------------------------------------------------|
f------------------------------------------------------------------------|
c-5-------12--------7--------8--------5--5-12-12-8-8-11-11-7-7-10-10-6-6-|
g-5-------12--------7--------8--------5--5-12-12-8-8-11-11-7-7-10-10-6-6-|
c-5-------12--------7--------8--------5--5-12-12-8-8-11-11-7-7-10-10-6-6-|
                                           pm

Outro:

d-----------------------------------------------------------------|
a-----------------------------------------------------------------|
f-------------3---------------3---------------3-------------------|
c-5-5-5-5-5-5-----5-5-5-5-5-5-----5-5-5-5-5-5-----5-5-5-5-5-5-5---|
g-5-5-5-5-5-5-----5-5-5-5-5-5-----5-5-5-5-5-5-----5-5-5-5-5-5-----|
c-5-5-5-5-5-5-----5-5-5-5-5-5-----5-5-5-5-5-5-----5-5-5-5-5-5-----|
  pm              pm              pm              pm

9.DARTS

Tuning- Drop C

	INTRO
e-----------------------------------------------------------------------=
b-----------------------------------------------------------------------=
g-----------------------------------------------------------------------=
d--0-0-0-0-0-0--6-6-6-6-6-6--6-6-6-6-6-6--5-5-5-5-5-5-------------------=
a--0-0-0-0-0-0--6-6-6-6-6-6--4-4-4-4-4-4--5-5-5-5-5-5-------------------=
e--0-0-0-0-0-0--6-6-6-6-6-6---------------5-5-5-5-5-5-------------------=

"May I please remaine in this place for darts screech for the desieres"
               {note: second time he says it}
			VERSE 1
e------------------------------------------------------------------------=
b-----7-777---6-666---7-777---6^-----------------------------------------=
g---5-------4-------5-------4--------------------------------------------=
d------------------------------------------------------------------------=
a------------------------------------------------------------------------=
e------------------------------------------------------------------------=
			  VERSE 2
e--------------------------------------------------------------------------|
b--10-10-10-10-10-10-10-10-9-9-9-9-9-9-9-9-8-8-8-8-8-8-8-8-7-7-7-7-7-7-7-7-|
g--------------------------------------------------------------------------|
d--------------------------------------------------------------------------|
a--------------------------------------------------------------------------|
e--------------------------------------------------------------------------|

e------12---------11---------10-------------------------------------------|
b-10-10--10--9-9-9--9--8-8-8---8--7^--------------------------------------|
g-------------------------------------------------------------------------|
d-------------------------------------------------------------------------|
a-------------------------------------------------------------------------|
e-------------------------------------------------------------------------|

				verse 3
e------------------------------------------------------------------------=
b-----7-777---6-666---7-777---666666------7-777---6-666---7-777--777777--=
g---5-------4-------5-------4-----------5-------4-------5------4---------=
d------------------------------------------------------------------------=
a------------------------------------------------------------------------=
e------------------------------------------------------------------------=

			Verse  4
e----------------|-------------------------------------|
b----------------|-------------------------------------|
g----------------|-------------------------------------|
d--0*--6*--6*--5*|-00000000-66666666-66666666-55555555-|
a--0*--6*--4*--5*|-00000000-66666666-44444444-55555555-|
e--0*--6*------5*|-00000000-66666666----------55555555-|

			verse 5
e--------------------------------------------------------------------------|
b--10-10-10-10-10-10-9-9-9-9-9-9-8-8-8-8-8-8-------------------------------|
g--------------------------------------------------------------------------|
d--------------------------------------------------------------------------|
a--------------------------------------------------------------------------|
e--------------------------------------------------------------------------|

			outro
e-----------------------------|---------------------------------|
b-----------------------------|---------------------------------|
g-----------------------------|---------------------------------|
d--000000-666666-666666-555555|--0-6-6-5--0-6-6-----------------|
a--000000-666666-444444-555555|--0-6-4-5--0-6-4-----------------|
e--000000-666666--------555555|--0-6---5--0-6-------------------|

10.PLUCK

Tuning: CGCFAD

A
    pm...................
1:--0-0-0-0-0-0-0-0-0-0-0-0-0-0-0-0-|
2:----------------------------------|
3:----------------------------------|
4:----------------------------------|
5:----------------------------------|
6:----------------------------------|


B
 pm.......................................................
1:---------------------------------------------------------|
2:---------------------------------------------------------|
3:---------------------------------------------------------|
4:-2-2-3--2---2-2-3-3-2-2---2--3--2-2-3-3-2-2---0--0--0--0-|
5:-2-2-3--2---2-2-3-3-2-2---2--3--2-2-3-3-2-2---0--0--0--0-|
6:-2-2-3--2---2-2-3-3-2-2---2--3--2-2-3-3-2-2---0--0--0--0-|


B'
 pm........................................
1:------------------------------------------|
2:------------------------------------------|
3:------------------------------------------|
4:-2-2-3--2---2-2-3-3-2-2---2--3--2-2-3-3-2-|
5:-2-2-3--2---2-2-3-3-2-2---2--3--2-2-3-3-2-|
6:-2-2-3--2---2-2-3-3-2-2---2--3--2-2-3-3-2-|


C
1:------------------------------------------|
2:------------------------------------------|
3:------------------------------------------|
4:-2-2-3--2---2-2-3-3-2-2---2--3--2-2-3-3-2-|
5:-2-2-3--2---2-2-3-3-2-2---2--3--2-2-3-3-2-|
6:-2-2-3--2---2-2-3-3-2-2---2--3--2-2-3-3-2-|


D
1:-------------------------------|
2:-------------------------------|
3:-------------------------------|
4:-2-2-3--2---2-2-3-3-2-2---2--3-|
5:-2-2-3--2---2-2-3-3-2-2---2--3-|
6:-2-2-3--2---2-2-3-3-2-2---2--3-|


E
1:------------|----------------|---------------|----------------|
2:------------|----------------|---------------|----------------|
3:-9-9---9--9-|-9-9---9---9--9-|---10-9---9--9-|-9-9---9---9--9-|
4:-9-9---9--9-|-9-8^9-9---9--9-|-9-9--9---9--9-|-9-8^9-9---9--9-|
5:-7-7---7--7-|-7-7---7---7--7-|-8-8--7---7--7-|-7-7---7---7--7-|
6:------------|----------------|---------------|----------------|


F
1:-------------------------------------------------|
2:-------------------------------------------------|
3:--7/9-9-9-99/13-13-13-1313/15-15-15-10/-13-13-13-|
4:-------------------------------------------------|
5:--5/7-7-7-77/11-11-11-1111/13-13-13--8/-11-11-11-|
6:-------------------------------------------------|


G
         pm.
1:-----------|
2:-----------|
3:-----------|
4:--0-2--222-|
5:--0-2--222-|
6:--0-2--222-|

H
1:---------------------|
2:---------------------|
3:---------------------|
4:--0-2--3-3-3-3-3-3-3-|
5:--0-2--2-2-2-2-2-2-2-|
6:--0-2--3-3-3-3-3-3-3-|


I
1:-----------------------------------------------|
2:-----------------------------------------------|
3:------5-5-5-5/7-5-2----------------------------|
4:--2-----------------5--5-5--5-5--3-3---3-5-3/2-|
5:--2---3-3-3-3/5-3-0-5--5-5--5-5--3-3---3-5-3/2-|
6:--2-----------------5--5-5--5-5--3-3---3-5-3/2-|


J
1:-----------------------------------------|
2:-----------------------------------------|
3:------5-5-5-5/7-5-2----------------------|
4:--2-----------------5--5-5--5-5--3-3-3-3-|
5:--2---3-3-3-3/5-3-0-5--5-5--5-5--3-3-3-3-|
6:--2-----------------5--5-5--5-5--3-3-3-3-|


K
1:----------------------------------------------|
2:----------------------------------------------|
3:------5-5-5-5/7-5-2---------------------------|
4:--2-----------------5--5-5--5-5--3-3--3--3--2-|
5:--2---3-3-3-3/5-3-0-5--5-5--5-5--3-3--3--3--2-|
6:--2-----------------5--5-5--5-5--3-3--3--3--2-|

ENJOY!!!
comments
print report bad tab
12 comments total. Showing first comments.
0 reply
feesk8ordie wrote on February 19 2005, 12:00 am

i didnt know this album only had 10 songs...

0 reply
Phildo64 wrote on May 13 2005, 12:00 am

lol it doesnt...you see. The tabber forgot Suggestions and Sugar! the two best songs!

0 reply
playfielder wrote on May 21 2005, 12:00 am

and peephole

I want to post or [tab]
guest
You may want to rate the tab now too:
select rating
Please do not post tabs as comments. Select "correction" instead!